» » »

Dark Arcanum- Tattered And Torn Tabs (ver.1)

Artists:  A B C D E F G H I J K L M N O P Q R S T U V W X Y Z # 

Dark Arcanum- Tattered And Torn Tabs (ver.1)

Unsigned
Rating:
0/5 (0 votes)

Hard to play? Try these video lessons and learn fast.
                This is a song from my band Dark Arcanum
I hope u like!!1

Repeat 16x 
|--------------------------------------|
|--------------------------------------|
|--------------------------------------|
|--------------------------------------|
|--3--2--1--1--1--1--3--2--1--1--1--1--|
|--5--4--3--3--3--3--5--4--3--3--3--3--|

Repeat 4x
|--------------------------------------------|
|--------------------------------------------|
|--------------------------------------------|
|--------------------------------------------|
|--3--3--3--6--6--6--6--3--3--3--2--2--2--2--|
|--5--5--5--8--8--8--8--5--5--5--4--4--4--4--|

Repeat 16x 
|--------------------------------------|
|--------------------------------------|
|--------------------------------------|
|--------------------------------------|
|--3--2--1--1--1--1--3--2--1--1--1--1--|
|--5--4--3--3--3--3--5--4--3--3--3--3--|


Repeat 4x
|--------------------------------------------|
|--------------------------------------------|
|--------------------------------------------|
|--------------------------------------------|
|--3--3--3--6--6--6--6--3--3--3--2--2--2--2--|
|--5--5--5--8--8--8--8--5--5--5--4--4--4--4--|

Repeat 16x 
|--------------------------------------|
|--------------------------------------|
|--------------------------------------|
|--------------------------------------|
|--3--2--1--1--1--1--3--2--1--1--1--1--|
|--5--4--3--3--3--3--5--4--3--3--3--3--|




Repeat 16x 
|----------------------------------------|
|----------------------------------------|
|----------------------------------------|
|----------------------------------------|
|--3--2--1--1--1--1--3--2--1--1--1--1--1-|
|--5--4--3--3--3--3--5--4--3--3--3--3--3-|


Repeat 4x
|--------------------------------------------|
|--------------------------------------------|
|--------------------------------------------|
|--------------------------------------------|
|--3--3--3--6--6--6--6--3--3--3--2--2--2--2--|
|--5--5--5--8--8--8--8--5--5--5--4--4--4--4--|

Repeat 16x 
|----------------------------------------|
|----------------------------------------|
|----------------------------------------|
|----------------------------------------|
|--3--2--1--1--1--1--3--2--1--1--1--1--1-|
|--5--4--3--3--3--3--5--4--3--3--3--3--3-|
            
Hard to play? Try these video lessons and learn fast. | Correct




comments powered by Disqus
↑ Back to top | Tablatures and chords are parodies/interpretations of the original songs. You may use it for private study, scholarship, research or language learning purposes only