» » »

Dark Arcanum- Morale Tabs (ver.1)

Artists:  A B C D E F G H I J K L M N O P Q R S T U V W X Y Z # 

Dark Arcanum- Morale Tabs (ver.1)

Unsigned
Rating:
0/5 (0 votes)

Tabs too difficult? Try these video lessons and learn fast.
                Morale

By- Dark Arcanum 

Repeat 2x
|--------------------------------------|
|--------------------------------------|
|--------------------------------------|
|--------------------------------------|
|----------------------5-5-5-5-5-5-5-5-|
|-5-5-5-5-5-5-5-5----------------------|

|------------------------------------------|
|------------------------------------------|
|------------------------------------------|
|------------------------------------------|
|--------------------7-7-7-7-7-7-7-7-------|
|7-7-7-7-7-7-7-7---------------------------|

Repeat 6x
|------------------------------|
|------------------------------|
|------------------------------|
|------------------7-7-7-7-7-7-|
|-7-7-7-7-7-7-7-7--5-5-5-5-5-5-|
|-5-5-5-5-5-5-5-5--------------|

|--------------------------------|
|--------------------------------|
|---------------9-9-9-9-9-9------|
|--9-9-9-9-9-9--7-7-7-7-7-7------|
|--7-7-7-7-7-7-------------------|

Repeat 2x
|-------------------------------------|
|-------------------------------------|
|-------------------------------------|
|------------7--7------------9--9-----|
|---7--7---5--5--5---9--9--7--7--7----|
|-5--5--5----------7--7--7------------|


Repeat 6x
|------------------------------|
|------------------------------|
|------------------------------|
|------------------7-7-7-7-7-7-|
|-7-7-7-7-7-7-7-7--5-5-5-5-5-5-|
|-5-5-5-5-5-5-5-5--------------|

|--------------------------------|
|--------------------------------|
|---------------9-9-9-9-9-9------|
|--9-9-9-9-9-9--7-7-7-7-7-7------|
|--7-7-7-7-7-7-------------------|

Repeat 2x
|-------------------------------------|
|-------------------------------------|
|-------------------------------------|
|------------7--7------------9--9-----|
|---7--7---5--5--5---9--9--7--7--7----|
|-5--5--5----------7--7--7------------|


Repeat 6x
|------------------------------|
|------------------------------|
|------------------------------|
|------------------7-7-7-7-7-7-|
|-7-7-7-7-7-7-7-7--5-5-5-5-5-5-|
|-5-5-5-5-5-5-5-5--------------|

|--------------------------------|
|--------------------------------|
|---------------9-9-9-9-9-9------|
|--9-9-9-9-9-9--7-7-7-7-7-7------|
|--7-7-7-7-7-7-------------------|

Repeat 2x
|-------------------------------------|
|-------------------------------------|
|-------------------------------------|
|------------7--7------------9--9-----|
|---7--7---5--5--5---9--9--7--7--7----|
|-5--5--5----------7--7--7------------|

Repeat 6x
|------------------------------|
|------------------------------|
|------------------------------|
|------------------7-7-7-7-7-7-|
|-7-7-7-7-7-7-7-7--5-5-5-5-5-5-|
|-5-5-5-5-5-5-5-5--------------|

|--------------------------------|
|--------------------------------|
|---------------9-9-9-9-9-9------|
|--9-9-9-9-9-9--7-7-7-7-7-7--7---|
|--7-7-7-7-7-7---------------5---|
                    Let ring ~~~~~~~~
            
Tabs too difficult? Try these video lessons and learn fast.




comments powered by Disqus
↑ Back to top | Tablatures and chords are parodies/interpretations of the original songs. You may use it for private study, scholarship, research or language learning purposes only