» » »

Unsigned, Damien Crombie - Through Me Tabs (ver.1)

Artists:  A B C D E F G H I J K L M N O P Q R S T U V W X Y Z # 

Damien Crombie - Through Me Tabs (ver.1)

Unsigned Tabs
 Rating:
4/5 (4 votes)
Damien Crombie - Through Me lessons Tabs too difficult? Try these video lessons and learn fast
                Distortion
Normal Tuning


     
   Intro Verses

E|-----------------------------------------------------------------------------------------------------------------------|
B|-----------------------------------------------------------------------------------------------------------------------|
G|----------------------------7--x--77--------5--x--55--------------------------------------------------------------|
D|---7--x--77---------------7--x--77--------5--x--55---------------------------55-------------------------------|
A|---7--x--77---------------5--x--55--------3--x--33---------5-p-3-p-0------55-------------------------------|
E|---5--x--55------------------------------------------------------------------------33-------------------------------|

 
       Chorus
     
E|-------------------------------------------------------------|
B|-------------------------------------------------------------|
G|-------------------------------------------------------------|
D|----------------5555----------------7777----------------|
A|----77---------3333--55-----------5555----------------|
E|----55------------------33---------------------------------|
            
Submit corrections

comments powered by Disqus
↑ Back to top | Unsigned Tabs for Damien Crombie - Through Me. Lyrics for acoustic guitar and electric guitar. Tablatures and chords are parodies/interpretations of the original songs. You may use it for private study, scholarship, research or language learning purposes only