» » »

Unsigned, Cuttlefish - Khemistry Tabs (ver.1)

Artists:  A B C D E F G H I J K L M N O P Q R S T U V W X Y Z # 

Cuttlefish - Khemistry Tabs (ver.1)

Unsigned Tabs
Rating:
0/5 (0 votes)
Hard to play? Try these video lessons and learn fast.
                Legend
~=Tremolo/vibrato 

Intro (repeat x6)
|--------------------------------------|
|--------------------------------------|
|--------------------------------------|
|-----2--------2--------0------0-------|
|---2--2-----2--2-----0--0---0--0------|
|-0---------3-------1--------2---------|


Verse 1(repeat x2)
|-------------------------------------------------------------------|
|-------------------------------------------------------------------|
|-------------------------------------------------------------------|
|-2--2--2--5--5--5--7--7--7--5--5--5--------------------------------|
|-2--2--2--3--3--3--5--5--5--3--3--3--------------------------------|
|-------------------------------------------------------------------|

Chorus (repeat x2)
|------------------------------------------------------------------|
|------------------------------------------------------------------|
|------------------------------------------------------------------|
|-9--9--9--7--7--7---------5--5------------------------------------|
|-7--7--7--5--5--5--7--7---3--3------------------------------------|
|-------------------5--5-------------------------------------------|


Solo
|-------------------------------------------------------------------|
|-----------------0-------------------------------------------------|
|-----0----------0-0------0-----------------------------------------|
|----2--0------2----0----0-0----------------------------------------|
|--2-----0----2---------0---0---------------------------------------|
|-0-------0--3---------2-------3~-----------------------------------|

Verse 1 (repeat x2)


Chorus (repeat x2)
            

comments powered by Disqus
↑ Back to top | Unsigned Tabs for Cuttlefish - Khemistry. Lyrics for acoustic guitar and electric guitar. Tablatures and chords are parodies/interpretations of the original songs. You may use it for private study, scholarship, research or language learning purposes only