» » »

Unsigned, Cross Town Rivals-I Want Tabs (ver.1)

Artists:  A B C D E F G H I J K L M N O P Q R S T U V W X Y Z # 

Cross Town Rivals-I Want Tabs (ver.1)

Unsigned Tabs
 Rating:
4/5 (4 votes)
Cross Town Rivals-I Want lessons Tabs too difficult? Try these video lessons and learn fast
1
                Copywrite XTR
This is a cool middles school band that plays great. This is there first song.
Intro
----------------------------------------------------------
-------------------------------------------------------------
---3--x8-----------------3—x8---------------------------------
---1----------3--x8-----1------------3------------------------
--------------1------------------------1--------------------

Main Riff
----------------------------------------------------
--------------------------------------------------
--7----5--------------------5-5-5-5-----------------7-7-7-7---------    Repeat 4X
--5----3------5-5-5-5-----3-3-3-3----7-7-7-7----5-5-5-5----------
---------------3-3-3-3------------------5-5-5-5--------------

Chorus
----------------------------------------------------
--------------------------------------------------
-------------------------------------------------
--------5--------6-------------------------------------        Repeat 4X
---6----3---3---4-----------------------------------------
---4--------1---------------------------------------------

Back to main riff and repeat hole thing again.
            
Submit corrections

comments powered by Disqus
↑ Back to top | Unsigned Tabs for Cross Town Rivals-I Want. Lyrics for acoustic guitar and electric guitar. 1 Tablatures and chords are parodies/interpretations of the original songs. You may use it for private study, scholarship, research or language learning purposes only