>
 >
Cross Town Rivals-I Want

Cross Town Rivals-I Want Guitar Tabs

Unsigned - Cross Town Rivals-I Want chords, tabs, tablatures, lyrics

Guitar lessons | Add/correct | Request | Top 50 tabs Artists:  A B C D E F G H I J K L M N O P Q R S T U V W X Y Z 0-9

Cross Town Rivals-I Want Guitar Tabs – Unsigned

CD, Sheet music, Poster

Do you like Cross Town Rivals-I Want? Share with your friends now
Tabs
Copywrite XTR
This is a cool middles school band that plays great. This is there first song.
Intro
----------------------------------------------------------
-------------------------------------------------------------
---3--x8-----------------3x8---------------------------------
---1----------3--x8-----1------------3------------------------
--------------1------------------------1--------------------

Main Riff
----------------------------------------------------
--------------------------------------------------
--7----5--------------------5-5-5-5-----------------7-7-7-7---------    Repeat 4X
--5----3------5-5-5-5-----3-3-3-3----7-7-7-7----5-5-5-5----------
---------------3-3-3-3------------------5-5-5-5--------------

Chorus
----------------------------------------------------
--------------------------------------------------
-------------------------------------------------
--------5--------6-------------------------------------        Repeat 4X
---6----3---3---4-----------------------------------------
---4--------1---------------------------------------------

Back to main riff and repeat hole thing again.





Comments


Popular Unsigned tabs & chords
Pop Up - Craze Bass Tabs
Suicide Method - Psllo Sic Bass Tabs
Unarmed - I Wont Take It Bass Tabs
Attention Def - Worst Things Worst Tabs
Climax - No Point Tabs
Edwardshor-Draw Your Number Tabs
Fading Out - We Know Its You Tabs
Floor 13 - Overdosed Relationship Tabs
Inside Out-Guilt Tabs
Loozer - Absent Minded Girl 1 Tabs


Song lyrics



↑ Back to top | Tablatures and chords are parodies/interpretations of the original songs. You may use it for private study, scholarship, research or language learning purposes only
© 2014 AZChords.com Contact us | Privacy policy | DMCA | Add/correct tabs | Request tabs | Top 50 tabs