» » »

Unsigned, Crooked Spenser - Tubesock Tabs (ver.1)

Artists:  A B C D E F G H I J K L M N O P Q R S T U V W X Y Z # 

Crooked Spenser - Tubesock Tabs (ver.1)

Unsigned Tabs
 Rating:
4/5 (4 votes)
Crooked Spenser - Tubesock lessons Tabs too difficult? Try these video lessons and learn fast
                Standard Tuning (e,B,G,D,A,E) 

Riff 1 : Intro (Distortion) (Slow)

e  ----------------------------------------------------------------------------------
B  ----------------------------------------------------------------------------------
G  -------------------------2----------3------------2---------3---2------------------
D  ---------0-----------0----------0------------0----------0-------------------------
A  -----3-----------3----------3-----------3-----------3-----------------------------
E  ----------------------------------------------------------------------------------

Riff 2: (Fast)

e  ----------------------------------------------------------------------------------
B  ----------------------------------------------------------------------------------
G  -------------2-----------3-----------0-----------2--------------------------------
D  ---------0-----------0-----------0-----------0------------------------------------
A  -----3-----------3-----------3-----------3----------------------------------------
E  ----------------------------------------------------------------------------------
                                              <-Pause 2 beats after completing riff->

Riff 3: (Same Speed as Riff 2)

e  ----------------------------------------------------------------------------------
B  ----------------------------------------------------------------------------------
G  -------------2-----------0-----------3-----------2---------2-----------------0----
D  ---------0-----------0-----------0-----------0-------------3-----------------2----
A  -----3-----------3-----------3-----------3-----------------3-----------------3----
E  ----------------------------------------------------------------------------------

Riff 4: [Guitar 1] (Fast)

e  ----------------------------------------------------------------------------------
B  ----------------------------------------------------------------------------------
G  ------------2-----------3------------2-----------0--------------------------------
D  ---------0-----0-----0-----0------3-----3-----2------2----------------------------
A  ------3-----------3------------3-----------3--------------------------------------
E  ----------------------------------------------------------------------------------

Riff 4: [Guitar 2] (Fast)

e  ----2-----2-----3-----3-----2-----2-----0-----0-----------------------------------
B  -------0-----0-----0-----0-----3-----3-----2-----2--------------------------------
G  ----------------------------------------------------------------------------------
D  ----------------------------------------------------------------------------------
A  ----------------------------------------------------------------------------------
E  ----------------------------------------------------------------------------------

Play Order

Riff 1
Riff 2 x 2
Riff 3
Riff 2
Riff 4 x 8
Riff 2 x 2
Riff 3
Riff 2
Riff 4 x 8 (Last 2 notes of 8th time: slow and played far apart)
            
Submit corrections

comments powered by Disqus
↑ Back to top | Unsigned Tabs for Crooked Spenser - Tubesock. Lyrics for acoustic guitar and electric guitar. Tablatures and chords are parodies/interpretations of the original songs. You may use it for private study, scholarship, research or language learning purposes only