» » »

Unsigned, Crni Leptir - So Far From Here Bass tabs (ver.1)

Artists:  A B C D E F G H I J K L M N O P Q R S T U V W X Y Z # 

Crni Leptir - So Far From Here Bass tabs (ver.1)

Unsigned Tabs
 Rating:
4/5 (4 votes)
Crni Leptir - So Far From Here lessons Tabs too difficult? Try these video lessons and learn fast
                So far from here \ Crni Leptir                          for comments mail me on

intro
----------------------------------------7-7--9-7—-7-7--9-7—-7-7--9-7—-7-7--9-7---|
-7-7--9-7—-7-7--9-7—-7-7--9-7—-7-7--9-7------------------------------------------|

----------------------------------------9-9--11-9--9-9--11-9--7-7--9-7—-7-7--9-7-|
-7-7--9-7—-7-7--9-7—-7-7--9-7—-7-7--9-7------------------------------------------|
                            end intro                                                                  
-------------------------------------|
-—-------------------9-7-------------|
-7-7--9-7—-7-7--9-7------9-7---7-9---|
-----------------------------9-------|
                                                                                 
figure 1
( this is played before verse )

---7----7----7------7----7----7------7----7----7----------3-2-0------|
-----00---00---0------00---00---0------00---00---0-------------------|

---7----7----7------7----7----7------7----7----7----------3-2-0------|
-----00---00---0------00---00---0------00---00---0-------------------|

verse
So far from here...
--------------------------9-7----------------------------------------|
------777-9-777------777-------9-7------777-9-777---------3-2-0------|
---0--------------0------------------0-------------------------------|

----------------------------7----------------------------------------|
------777-9-777------777--9---9--7------777-9-777---------3-2-0------|
---0--------------0------------------0-------------------------------|

--------------------------9-7----------------------------------------|
------777-9-777------777-------9-7------777-9-777---------3-2-0------|
---0--------------0------------------0-------------------------------|

----------------------------7----------------------------------------|
------777-9-777------777--9---9--7------777-9-777---------3-2-0------|
---0--------------0------------------0-------------------------------|

figure 2
( this is played before chorus )

--------9---------------11------------------12---------------------14-12-------|
--7-7-7---7-7-7—--9-9-9----9-9-9—--10-10-10----10-10-10—--12-12-12-------14-12-|

--------9---------------11------------------12------------------------12-------|
--7-7-7---7-7-7—--9-9-9----9-9-9—--10-10-10----10-10-10—--12-12-12/14----14-12-|

--------9---------------11------------------12---------------------14-12-------|
--7-7-7---7-7-7—--9-9-9----9-9-9—--10-10-10----10-10-10—--12-12-12-------14-12-|

--------9---------------11------------------12------------------------12-------|
--7-7-7---7-7-7—--9-9-9----9-9-9—--10-10-10----10-10-10—--12-12-12/14----14-12-|

chorus
Wake up man...
-9----9----9---11----11----11---12------12------12----14------14------14-------|
--7-7--7-7--7----9-9---9-9---9----10-10---10-10---10----12-12---12-12---12-----|

-9----9----9---11----11----11---12------12------12----14------14------14-------|
--7-7--7-7--7----9-9---9-9---9----10-10---10-10---10----12-12---12-12---12-----|
 
oooooh        oooooh           oooooh                oooooh
-9----9----9---11----11----11---12------12------12----14------14------14-------|
--7-7--7-7--7----9-9---9-9---9----10-10---10-10---10----12-12---12-12---12-----|
 
aaaaah        aaaaah           aaaaah                aaaaah
-9----9----9---11----11----11---12------12------12----14------14------14-------|
--7-7--7-7--7----9-9---9-9---9----10-10---10-10---10----12-12---12-12---12-----|

figure 1

---7----7----7------7----7----7------7----7----7----------3-2-0------|
-----00---00---0------00---00---0------00---00---0-------------------|

---7----7----7------7----7----7------7----7----7----------3-2-0------|
-----00---00---0------00---00---0------00---00---0-------------------|

verse
Forget your feer...
--------------------------9-7----------------------------------------|
------777-9-777------777-------9-7------777-9-777---------3-2-0------|
---0--------------0------------------0-------------------------------|

----------------------------7----------------------------------------|
------777-9-777------777--9---9--7------777-9-777---------3-2-0------|
---0--------------0------------------0-------------------------------|

figure 2

--------9---------------11------------------12---------------------14-12-------|
--7-7-7---7-7-7—--9-9-9----9-9-9—--10-10-10----10-10-10—--12-12-12-------14-12-|

--------9---------------11------------------12------------------------12-------|
--7-7-7---7-7-7—--9-9-9----9-9-9—--10-10-10----10-10-10—--12-12-12s14----14-12-|

--------9---------------11------------------12---------------------14-12-------|
--7-7-7---7-7-7—--9-9-9----9-9-9—--10-10-10----10-10-10—--12-12-12-------14-12-|

--------9---------------11------------------12------------------------12-------|
--7-7-7---7-7-7—--9-9-9----9-9-9—--10-10-10----10-10-10—--12-12-12s14----14-12-|

chorus
Wake up man...
-9----9----9---11----11----11---12------12------12----14------14------14-------|
--7-7--7-7--7----9-9---9-9---9----10-10---10-10---10----12-12---12-12---12-----|

-9----9----9---11----11----11---12------12------12----14------14------14-------|
--7-7--7-7--7----9-9---9-9---9----10-10---10-10---10----12-12---12-12---12-----|
 oooooh        oooooh           oooooh                oooooh
-9----9----9---11----11----11---12------12------12----14------14------14-------|
--7-7--7-7--7----9-9---9-9---9----10-10---10-10---10----12-12---12-12---12-----|
 aaaaah        aaaaah           aaaaah                aaaaah
-9----9----9---11----11----11---12------12------12----14------14------14-------|
--7-7--7-7--7----9-9---9-9---9----10-10---10-10---10----12-12---12-12---12-----|

during guitar solo
( figure 2 is played two times )

--------9---------------11------------------12---------------------14-12-------|
--7-7-7---7-7-7—--9-9-9----9-9-9—--10-10-10----10-10-10—--12-12-12-------14-12-|

--------9---------------11------------------12------------------------12-------|
--7-7-7---7-7-7—--9-9-9----9-9-9—--10-10-10----10-10-10—--12-12-12s14----14-12-|

--------9---------------11------------------12---------------------14-12-------|
--7-7-7---7-7-7—--9-9-9----9-9-9—--10-10-10----10-10-10—--12-12-12-------14-12-|

--------9---------------11------------------12------------------------12-------|
--7-7-7---7-7-7—--9-9-9----9-9-9—--10-10-10----10-10-10—--12-12-12s14----14-12-|
( then repeat again )

outro

------9-----------11-------------12---------------14-12---------------|
--7-7---7-7-—-9-9----9-9—--10-10----10-10-—-12-12-------14-12---------|
                                                           
------9-----------11-------------12-----------------------------------|
--7-7---7-7-—-9-9----9-9—--10-10----10-10-—-12--10-9-10-9--5-7--------|
            
Submit corrections

comments powered by Disqus
↑ Back to top | Unsigned Bass for Crni Leptir - So Far From Here. Lyrics for acoustic guitar and electric guitar. Tablatures and chords are parodies/interpretations of the original songs. You may use it for private study, scholarship, research or language learning purposes only