» » »

Unsigned, Craig-A-Death: A Foggy Day Tabs (ver.1)

Artists:  A B C D E F G H I J K L M N O P Q R S T U V W X Y Z # 

Craig-A-Death: A Foggy Day Tabs (ver.1)

Unsigned Tabs
 Rating:
4/5 (4 votes)
Craig-A-Death: A Foggy Day lessons Tabs too difficult? Try these video lessons and learn fast
                VERSE:
:---------------------------------------------------------------
:---------------------------------------------------------------
:---------------------------------------------------------------
:9-9-9-9-7-7-7-7----------------9-9-9-9-7-7-7-7-----------------
:7-7-7-7-5-5-5-5-7-9-7-5--5-5-5-7-7-7-7-5-5-5-5-7-9-7-5--5-5-5-5
:----------------5-7-5-3--3-3-3-----------------5-7-5-3--3-3-3-3
Pm-------------------------------------------------------------- (2 times)

:---------------------------------------------------------------
:---------------------------------------------------------------
:---------------------------------------------------------------
:9-9-9-9-7-7-7-7----------------9-9-9-9-7-7-7-7-----------------
:7-7-7-7-5-5-5-5-7-9-7-5--5-5-5-7-7-7-7-5-5-5-5-7-9-7-5--5-5-5-5
:----------------5-7-5-3--3-3-3-----------------5-7-5-3--3-3-3-3 (4 times)

CHORUS:
:------------------------------------------------------------
:------------------------------------------------------------
:------------------------------------------------------------
:--------12-11-9--9-9-9---9-11-12----------------------------    
:9-9-9-9-10-9--7--7-7-7-9-7-9--10-12--12-12-12-7-9-7-5--5-5-5
:7-7-7-7----------------7---------10--10-10-10-5-7-5-3--3-3-3

:--------------------------------------------------------------
:--------------------------------------------------------------
:--------------------------------------------------------------
:--------12-11-9--9-9-9---9-11-12------------------------------    
:9-9-9-9-10-9--7--7-7-7-9-7-9--10-12--12-12-12-7-9-7-5--5-5-5-2
:7-7-7-7----------------7---------10--10-10-10-5-7-5-3--3-3-3-0

:---------------------------------------------------------------
:---------------------------------------------------------------
:---------------------------------------------------------------
:9-9-9-9-7-7-7-7----------------9-9-9-9-7-7-7-7-----------------
:7-7-7-7-5-5-5-5-7-9-7-5--5-5-5-7-7-7-7-5-5-5-5-7-9-7-5--5-5-5-5
:----------------5-7-5-3--3-3-3-----------------5-7-5-3--3-3-3-3
Pm-------------------------------------------------------------- (2 times)

:---------------------------------------------------------------
:---------------------------------------------------------------
:---------------------------------------------------------------
:9-9-9-9-7-7-7-7----------------9-9-9-9-7-7-7-7-----------------
:7-7-7-7-5-5-5-5-7-9-7-5--5-5-5-7-7-7-7-5-5-5-5-7-9-7-5--5-5-5-5
:----------------5-7-5-3--3-3-3-----------------5-7-5-3--3-3-3-3 (4 times)

:------------------------------------------------------------
:------------------------------------------------------------
:------------------------------------------------------------
:--------12-11-9--9-9-9---9-11-12----------------------------    
:9-9-9-9-10-9--7--7-7-7-9-7-9--10-12--12-12-12-7-9-7-5--5-5-5
:7-7-7-7----------------7---------10--10-10-10-5-7-5-3--3-3-3

:-------------------------------------------------------
:-------------------------------------------------------
:-------------------------------------------------------
:--------12-11-9--9-9-9---9-11-12-----------------------    
:9-9-9-9-10-9--7--7-7-7-9-7-9--10-12--12-12-12-7-9-7-5-2
:7-7-7-7----------------7---------10--10-10-10-5-7-5-3-0

Solo: (well kind of anyways)
:---------------------------------------------------------
:---------------------------------------------------------
:-------10-9-7--7-7-7---7-9-10----------------------------
:7-7-7-7--------------7--------10--10-10-10-14-14-14-14-14
:---------------------------------------------------------
:---------------------------------------------------------

:----------------------------------------------------------------------15-13-12
:----------------------------------------------------------13-13-13-13----------12--
:-------10-9-7--7-7-7---7-9-10-----------------------------
:7-7-7-7--------------7--------10--10-10-10-14-14-14-14-14-
:----------------------------------------------------------
:----------------------------------------------------------

:---------12-14-15----------------------------------
:12-12-12----------15--15-15-15-15-13-15-13-15-13/12
:---------------------------------------------------
:---------------------------------------------------
:---------------------------------------------------
:---------------------------------------------------

:------------------------------------------------------------
:------------------------------------------------------------
:------------------------------------------------------------
:--------12-11-9--9-9-9---9-11-12----------------------------    
:9-9-9-9-10-9--7--7-7-7-9-7-9--10-12--12-12-12-7-9-7-5--5-5-5
:7-7-7-7----------------7---------10--10-10-10-5-7-5-3--3-3-3

:-------------------------------------------------------
:-------------------------------------------------------
:-------------------------------------------------------
:--------12-11-9--9-9-9---9-11-12-----------------------    
:9-9-9-9-10-9--7--7-7-7-9-7-9--10-12--12-12-12-7-9-7-5-2
:7-7-7-7----------------7---------10--10-10-10-5-7-5-3-0

:---------
:---------
:---------
:---------
:7-9-7-5-2
:5-7-5-3-0
            
Submit corrections

comments powered by Disqus
↑ Back to top | Unsigned Tabs for Craig-A-Death: A Foggy Day. Lyrics for acoustic guitar and electric guitar. Tablatures and chords are parodies/interpretations of the original songs. You may use it for private study, scholarship, research or language learning purposes only