» » »

Unsigned, Cork Screw-Worries Tabs (ver.1)

Artists:  A B C D E F G H I J K L M N O P Q R S T U V W X Y Z # 

Cork Screw-Worries Tabs (ver.1)

Unsigned Tabs
 Rating:
4/5 (4 votes)
Cork Screw-Worries lessons Tabs too difficult? Try these video lessons and learn fast
1
                Band name: cork SCREW
Song name: Worries

Everyone better remember that name because you’re going to hear it latter
And ivo is stupid


intro
--4-5-4---4-5-4---4-5-4-7-5-4-0------4-5-4--4--5-4-------4-5-4---------4-
5--------5------5-------------------5---------5--------5---------7-5-7---(5) on second time


verse
---------------------------        ----------------------------
----------------------------       ---------------------------- (repeat verse 2x)
------------xx6-6-xx7-7 repeat 3x  ------------6-6-6-6--7-7-7-7
xx7-7-xx7-7-xx6-6-xx7-7            xx7-7-xx7-7-6-6-6-6--7-7-7-7  
xx7-7-xx7-7-xx4-4-xx5-5            xx7-7-xx7-7-4-4-4-4--5-5-5-5
xx5-5-xx5-5---------------         xx5-5-xx5-5-----------------

chorus
--------6------7------9-----7------------6-----7-----------7-----    
7-------6(8x)--7(8x)--9(4x)-7(4x)--7-----6(8x)-7(8x)-9-----7(4x)-
7-(8x)--4------5------7-----5------7(8x)-4-----5-----9(4x)-5-----
5----------------------------------5-----------------7-----------

solo
A----------------4-5-4-5~--------------------4-5-4-7~---------------------4-5-4-5~
E5-5-5-5-5-5-5-5----------5-5-5-5-5-5-5-5------------5-5-5-5-5-5-5-5----------------

A----------------4-5-4-2~----------4-5-4-5-4-----------4-5-7-5-4-----------4-5-4-5-4
E5-5-5-5-5-5-5-5------------5-5-5-5-------------5-5-5-5------------7-7-7-7----------

A-------4-5-7-5-4-------4-5-4-5-4--------4-5-7-5-4--------4-5-4-5-4---------4-5-7-5-4
E7-7-7-7---------5-5-5-5----------5-5-5-5----------4-4-4-4----------4-4-4-4----------

A-----------4-4-4-4-5-5-5-5-7-7-7-7-----------4-4-4-4-5-5-5-5-7-7-7-7--
E-5-5-5-5-----------------------------7-7-7-7---------------------------------

A-------4-4-4-4-5-5-5-5-7-7-7-7-------4-4-4-4-5-5-5-5-7-7-7-7-5-5-5-5-7-7-7-7-5-5-5-5-7-7-7-7
E5-5-5-5-----------------------4-4-4-4----------------------------------------------

Intro
Verse
Chorus
Intro
Verse
Chorus
Solo
chorus
            
Submit corrections

comments powered by Disqus
↑ Back to top | Unsigned Tabs for Cork Screw-Worries. Lyrics for acoustic guitar and electric guitar. 1 Tablatures and chords are parodies/interpretations of the original songs. You may use it for private study, scholarship, research or language learning purposes only