» » »

Copper Flame - P.P.S Bass tabs (ver.1)

Artists:  A B C D E F G H I J K L M N O P Q R S T U V W X Y Z # 

Copper Flame - P.P.S Bass tabs (ver.1)

Unsigned
Rating:
0/5 (0 votes)
Tabs too difficult? Try these video lessons and learn fast.
                Bridgeman/Earl/Williamson

Main octave riff, played for intro
and solo bass parts:

G:--------------------------------7-7---7----------
D:------7-7---7------5-5---5-----------------------
A:----------------------------5-5-----5------------
E:--5-5-----5----3-3-----3-------------------1-1-0-

Chorus:

G:-------------------------------------------------------
D:-------------------------------------------------------
A:--------------------------------5--5-5--5-5-5----------
E:--5--5-5--5-5-5--3--3-3--3-3-3-------------------1-1-0-

You need to emphasise the 1-1-0 at the end, as
it gives a punky catchy part to the end of the
riff.
The main riff canes your hand, as you need to
bend it to get the octave in,
            
Tabs too difficult? Try these video lessons and learn fast.


comments powered by Disqus
↑ Back to top | Tablatures and chords are parodies/interpretations of the original songs. You may use it for private study, scholarship, research or language learning purposes only