» » »

Unsigned, Cool Tabs (ver.1)

Artists:  A B C D E F G H I J K L M N O P Q R S T U V W X Y Z # 

Cool Tabs (ver.1)

Unsigned Tabs
 Rating:
4/5 (4 votes)
Cool lessons Tabs too difficult? Try these video lessons and learn fast
1
                (Riff)
(~ means tremor note)
This is best played with thumb for G string, index finger for B string, and
Middle Finger for e string.


e|---15--15---12--12---9--9---7--7---5--5---3--3---2--2---0--0|
B|--0---0----0---0----0--0---0--0---0--0---0--0---0--0---0--0-|
G|-0---0----0---0----0--0---0--0---0--0---0--0---0--0---0--0--|
D|------------------------------------------------------------|
A|------------------------------------------------------------|
E|------------------------------------------------------------|


e|---2--2---3--3---5--5---7--7---9--9---12--12---15--15--15--15-15~|
B|--0--0---0--0---0--0---0--0---0--0---0---0----0---0---0---0------|
G|-0--0---0--0---0--0---0--0---0--0---0---0----0---0---0---0-------|
D|-----------------------------------------------------------------|
A|-----------------------------------------------------------------|
E|-----------------------------------------------------------------|
            
Submit corrections

comments powered by Disqus
↑ Back to top | Unsigned Tabs for Cool. Lyrics for acoustic guitar and electric guitar. 1 Tablatures and chords are parodies/interpretations of the original songs. You may use it for private study, scholarship, research or language learning purposes only