» » »

Unsigned, Cool Tabs (ver.3)

Artists:  A B C D E F G H I J K L M N O P Q R S T U V W X Y Z # 

Cool Tabs (ver.3)

Unsigned Tabs
Rating:
0/5 (0 votes)
Cool lessons Tabs too difficult? Try these video lessons and learn fast
                (Riff)
Here is a cool peice of riffage i made up. It sounds real good with a little distortion. Just work around with it and see what you like best



    Intro riff                        Main riff
 -----------------------------------|-------------------------------
 ----------------0------------------|-------------------------------
 -----------------------------------|--------------------------------
 -------------------------------x4--|--------------------------------
 -----------------------------------|-2-1-0------------x2------------
 ----0-----0-0---3~---0-0---6-7-----|--------3-4-3------------------

 -----------------------------------|-------------------------------
 -----------------------------------|-------------------------------
 -----------------------------------|-------------------------------
 -------------0--0--0---------------|---------------------------0---
 -2-1-0----------------4------------|-2-1-0------x3--then------------
 --------3-4------------------------|--------3--0------------3^------

  solo:                  (rapid)
 -------12-----------------12----------------------------------------
 -----------12---15^-----------15--12--------------------------------
 -------------------------------------15----x8----------------------
 --------------------------------------------------------------------
 -------------------------------------------------------------------
 -------------------------------------------------------------------

 -----------------------------------|-------12-12-12-12-------------
 -----15----------------------------|-------15-14-13-12---------------
 --14^---14----12~------------------|--------------------14^-12^------
 -----------14-------14--12------12-|--14-------------------------12~-
 ----------------------------14-----|-------------------------------
 -----------------------------------|-------------------------------
                                          -jesse-
            

comments powered by Disqus
↑ Back to top | Unsigned Tabs for Cool. Lyrics for acoustic guitar and electric guitar. Tablatures and chords are parodies/interpretations of the original songs. You may use it for private study, scholarship, research or language learning purposes only