» » »

Confident Song Bass

Artists:  A B C D E F G H I J K L M N O P Q R S T U V W X Y Z # 

Confident Song Bass

(ver. 1)
Unsigned Tabs
 Rating:
4/5 (4 votes)
    Confident Song lessons Tabs too difficult? Try these video lessons and learn fast
                Intro x2

G----------------------------------------------------------------
D--0---5---------------0--5--------3---------------------------
A-----------5----3-----------5--3-----5------------------------
E-----------------------------------------------------------------

Play right after intro

G-----------------------------------------------------------
D-----3-5-3--------------------3-5-3---------------0-------
A--5---------5--1--3--1------5----------5--1—3--1----------
E------------------------3----------------------------------



G-----------------------------------------------------------------
D--0---5---------------------------------------------------------
A----------5----3---1-------------------------------------------
E-------------------------3---------------------------------------


Keep on repeating!
            
Submit corrections

↑ Back to top | Unsigned Bass for Confident Song. Lyrics for acoustic guitar and electric guitar. Tablatures and chords are parodies/interpretations of the original songs. You may use it for private study, scholarship, research or language learning purposes only