» » »

Comet People To You - My Favourite Kind Bass tabs (ver.1)

Artists:  A B C D E F G H I J K L M N O P Q R S T U V W X Y Z # 

Comet People To You - My Favourite Kind Bass tabs (ver.1)

Unsigned
Rating:
0/5 (0 votes)

Hard to play? Try these video lessons and learn fast.
                riff A
--------------------------------------------------------
----------------------------44456666-----------44456666-
-----------------7-77765555-----------77765555----------
-000-000-000-000----------------------------------------

riff B
----------------------------------------------------------7-
--------------------2246-6-4-4-2-2-2-2--0000000-------------
------2-4-4--22-3-4-----------------------------440---------
--2-4-----------------------------------------------2-2-00--

riff c
-------
-------
-------
-93485- 7X

riff D
----------------------
----------------------
-00-21-2---6-6-4-3----
-223--3----5-8-----9-3 4X

riff E
---------------------------------------------------------
---------------------------------------------------------
--000-2222222222-44444444444444444444444444444444--------
---------------------------------------------------56777- 2X

riff F
-000--77787-555-222-3---
------------------------
------------------------
------------------------ 4X

riff B
----------------------------------------------------------7-
--------------------2246-6-4-4-2-2-2-2--0000000-------------
------2-4-4--22-3-4-----------------------------440---------
--2-4-----------------------------------------------2-2-00--

riff c
-------
-------
-------
-93485- 7X

riff D
----------------------
----------------------
-00-21-2---6-6-4-3----
-223--3----5-8-----9-3 4X

riff G
--------------
--------------
--------------
-00-00-999999- 3X
            
Hard to play? Try these video lessons and learn fast. | Correct




comments powered by Disqus
↑ Back to top | Tablatures and chords are parodies/interpretations of the original songs. You may use it for private study, scholarship, research or language learning purposes only