» » »

Comet People To You - I Smell Bait Bass tabs (ver.1)

Artists:  A B C D E F G H I J K L M N O P Q R S T U V W X Y Z # 

Comet People To You - I Smell Bait Bass tabs (ver.1)

Unsigned
Rating:
0/5 (0 votes)

Hard to play? Try these video lessons and learn fast.
                intro/chorus
----------------------------
----------------------------
---5555--7777----5555-------
-7-------------------------- 4X

verse
---------------------------
---------------------------
---------------------------
-7-----5-----345-543-345--- 2X

intro/chorus
-----------------------
-----------------------
---5555--7777----5555--
-7--------------------- 4X

verse
---------------------------
---------------------------
---------------------------
-7-----5-----345-543-345-5- 2X

intro/chorus
-----------------------
-----------------------
---5555--7777----5555--
-7--------------------- 4X

bridge
--------------
--------------
--------------
00-33-53-4-4-- 6X

intro/chorus
------------------------
------------------------
---5555--7777----5555---
-7---------------------- 8X

here are the lyrics

I can't handle this Anymore/ my heart gone past my knees to the floor/i feel so degrading/I just cant stop hating/how many times must i hear this awful story/ how many times must you tell another lie for me/ I can't handle this anymore/ my hearts past my knees to the floor/ what's that thing i hate/ i think i smelll bait 2X
            
Hard to play? Try these video lessons and learn fast. | Correct




comments powered by Disqus
↑ Back to top | Tablatures and chords are parodies/interpretations of the original songs. You may use it for private study, scholarship, research or language learning purposes only