» » »

Unsigned, Climax - Purity Tabs (ver.1)

Artists:  A B C D E F G H I J K L M N O P Q R S T U V W X Y Z # 

Climax - Purity Tabs (ver.1)

Unsigned Tabs
 Rating:
4/5 (4 votes)
Climax - Purity lessons Tabs too difficult? Try these video lessons and learn fast
                



e-------1--11--31--------1--11--31--------1--11--31----------------------
b----2------------------2------------------2----------------------------------- 
g-3------------------1------------------0------------------11--2-------------
d-------------------------------------------------------------------------------
a-------------------------------------------------------------------------------
d-------------------------------------------------------------------------------

Bass then guitar (muted)

e-----------------------------------------------
b----------------------------------------------- 
g-----------------------------------------------
d--77777--55555--33333--556------------
a--77777--55555--33333--556-------------
d--77777--55555--33333--556-------------

Then without muting you do this>

e------------1-1-3-1-----------1-1-3-1----------1-1-3-1------------------------------
g------------------------------------------------------------------------------------------- 
b--------------------------------------------------------------------------------------------
d--77777-------------55555-------------33333-----------556--------------------------
a--77777-------------55555-------------33333-----------556--------------------------
d--77777-------------55555-------------33333-----------556--------------------------

For verse do muting part 
For chorus you do this>

e-----------------------------------------------------------------
g-----------------------------------------------------------------
b-----------------------------------------------------------------
d---77777777--55555555--33333333--556---------------
a---77777777--55555555--33333333--556---------------
d—77777777--55555555--33333333--556---------------

For soft part play the chorus bit but once with flanger on 
Then pick it.
            
Submit corrections

comments powered by Disqus
↑ Back to top | Unsigned Tabs for Climax - Purity. Lyrics for acoustic guitar and electric guitar. Tablatures and chords are parodies/interpretations of the original songs. You may use it for private study, scholarship, research or language learning purposes only