» » »

Citrizz Element - Go Away Bass tabs (ver.1)

Artists:  A B C D E F G H I J K L M N O P Q R S T U V W X Y Z # 

Citrizz Element - Go Away Bass tabs (ver.1)

Unsigned
Rating:
0/5 (0 votes)

Hard to play? Try these video lessons and learn fast.
                g-----------------
d---0-------00----
a-33-33-0-33--33-0
e----------------- 4X

g---------------
d---3------33---
a-33-303-33--303
e--------------- 2X

g-----------------
d---0-------00----
a-33-33-0-33--33-0
e----------------- 3X

g---------------
d---3------33---
a-33-303-33--303
e--------------- 2X

g--------------------------------------------------------------------
d----------------------------------/---23--23--23--32--23--23--23--32
a---23--23--23--32--23--23--23--32-/-3---3---3---3---3---3---3---3---
e-3---3---3---3---3---3---3---3--------------------------------------

g---------------
d---3------33---
a-33-303-33--303
e--------------- 4X
            
Hard to play? Try these video lessons and learn fast. | Correct




comments powered by Disqus
↑ Back to top | Tablatures and chords are parodies/interpretations of the original songs. You may use it for private study, scholarship, research or language learning purposes only