» » »

Unsigned, Cig- I Want Tabs (ver.1)

Artists:  A B C D E F G H I J K L M N O P Q R S T U V W X Y Z # 

Cig- I Want Tabs (ver.1)

Unsigned Tabs
Rating:
0/5 (0 votes)
Cig- I Want lessons Tabs too difficult? Try these video lessons and learn fast
                
Intro
e:------------------
B:------------------
G:------------------
D:5-------5-----5--- 
A:x-(x16)-0-(x8)3-(x8)
E:3-----------------

Verse
e:------------------------
B:------------------------
G:------------------------
D:--5--5--5--5--5--5--5--5
A:------------00-00-33-33-
E:33-33-33-33-------------

Chours
e:----------------------------------
B:----------------------------------
G:-------7-----5-------------5------
D:5------7-(x8)5-(x8)-5------5-(x8)7
A:5-(x16)5-----3------5-(x16)3-----7(x8)
E:3-------------------3------------5

Solo
e:------------
B:------------
G:-5---5-5--5-
D:-5---5-5--5-
A:------3--5--
E:3--5--------

Order
Intro  x4
Verse  x2
Chours x2
Intro  x2
Verse  x2
Chours x2
Solo   x2
Chours x2
            
Submit corrections

comments powered by Disqus
↑ Back to top | Unsigned Tabs for Cig- I Want. Lyrics for acoustic guitar and electric guitar. Tablatures and chords are parodies/interpretations of the original songs. You may use it for private study, scholarship, research or language learning purposes only