» » »

Chris Williams - "Lost Control" Tabs (ver.1)

Artists:  A B C D E F G H I J K L M N O P Q R S T U V W X Y Z # 

Chris Williams - "Lost Control" Tabs (ver.1)

Unsigned
Rating:
0/5 (0 votes)

Hard to play? Try these video lessons and learn fast.
                
          
e|----------0---------|-----------0------------|
B|.-----4-----4---4--.|.--------4---4---4-----.|
G|----6---6-----6-----|-------6-------6--------| Intro: Repeat 2x's
D|--6-----------------|-----6------------------|
A|.------------------.|.--0-------------------.|
E|--------------------|------------------------|


           Repeat 3x's
e|---------------------|-----------------------|
B|.-------------------.|-----------------------|
G|---6-----------------|--6--------------------|Chorus riff: 
D|---6---7---2---------|--6---7---9------------|
A|.--4---7---2--------.|--4---7---9------------|
E|---4---5---0---------|--4---5---7------------|


e|---------------------------------------------|
B|---------------------------------------------|
G|---------------------------------------------| Verse Riff: Repeat 4 x's
D|----------4---6------------------------------|
A|--6---2---2---4------------------------------|
E|--4---0--------------------------------------|


*Note: On the 2nd verse, use palm muted 8th notes throughout.
       For the solo, play the chorus riff throughout

Song Structure:

Intro
Chorus
Verse
Chorus
Verse
Chorus
Solo (chorus riff)
            
Hard to play? Try these video lessons and learn fast. | Correct




comments powered by Disqus
↑ Back to top | Tablatures and chords are parodies/interpretations of the original songs. You may use it for private study, scholarship, research or language learning purposes only