» » »

Unsigned, Choking Hazard - "Joel" Tabs (ver.1)

Artists:  A B C D E F G H I J K L M N O P Q R S T U V W X Y Z # 

Choking Hazard - "Joel" Tabs (ver.1)

Unsigned Tabs
Rating:
0/5 (0 votes)
Hard to play? Try these video lessons and learn fast.
                CHOKING HAZARD!!!!! “Joel”

Tuning- dropped D

Intro
----7---7--0--0--7---7--7--7--7---7--7--5---5--0--0--5---5--5--5--5--5--5----X2------
----7---7--0--0--7---7--7--7--7---7--7--5---5--0--0--5---5--5--5--5--5--5------------
----7---7--0--0--7---7--7--7--7---7--7--5---5--0--0--5---5--5--5--5--5--5------------

----9---9--0--0--9---9--9--9--9--9--9--7---7--0--0--7---7--7--7--7--7--7-----------------9---9--0--0--9---9--9--9--9--9--9--7---7--0--0--7---7--7--7--7--7--7-----------------9---9--0--0--9---9--9--9--9--9--9--7---7--0--0--7---7--7--7--7--7--7-------------

----5---5--0--0--5---5--5--5--5--5--5---3----------3-------0-------------------------
----5---5--0--0--5---5--5--5--5--5--5---3----------3-------0----(let ring)-----------
----5---5--0--0--5---5--5--5--5--5--5---3----------3-------0-------------------------

Verse

-----3----3--4--3---3--3--3--3-3---0---0--3--0---0--0--0--0-0------------------------
-----3----3--4--3---3--3--3--3-3---0---0--3--0---0--0--0--0-0----X4------------------
-----3----3--4--3---3--3--3--3-3---0---0--3--0---0--0--0--0-0------------------------

Chorus

----7--------------5----------------3----------3-------0-----------------
----7---(lots)-----5---(lots)------3----------3-------0---(let ring)----- 
----7--------------5----------------3----------3-------0-----------------

End on…
----5--------------------------------5----------------------------------
----5—(use whammy bar slowly down)---5----------------------------------
----5--------------------------------5----------------------------------

Intro
Verse 1
Chorus 
Verse 2
Chorus
Verse 3
Chorus 
Verse 4
Chorus
End
            

comments powered by Disqus
↑ Back to top | Unsigned Tabs for Choking Hazard - "Joel". Lyrics for acoustic guitar and electric guitar. Tablatures and chords are parodies/interpretations of the original songs. You may use it for private study, scholarship, research or language learning purposes only