array
(
    
'childrenatplaysmashingpumpkins' => 'childrenatplaysmashingpumpkins'
    'unsigned' 
=> 'unsigned'
)
Children At Play - Smashing Pumpkins Tabs (ver. 1) by Unsigned @ AZ CHORDS.COM
» » »

Children At Play - Smashing Pumpkins Tabs (ver.1)

Artists:  A B C D E F G H I J K L M N O P Q R S T U V W X Y Z # 

Children At Play - Smashing Pumpkins Tabs (ver.1)

Unsigned
Rating:
0/5 (0 votes)

Hard to play? Try these video lessons and learn fast.
                Children At Play
'Smashing Pumpkins'
Wrtiien By: Joe Eaton & Timmy O
Tuning: 1/2 Step Down (Eb Bb Gb Db Ab Eb)
***EACH SECTION EQUALS ONE MEASURE***

/ = slide up
\ = slide down
b = bend
@ = rest
~ = vibrate
h = hammer-on

This is one of the first songs our band has written.


Intro
Eb|-------------------------|
Bb|-------------------------|
Gb|-------------------------|
Db|-------------------------|
Ab|-0-----------------------|
Eb|-------------------------|
    ^Hold that note

Verses
Eb|-----------------------------|
Bb|-----------------------------|
Gb|-2-2-2--6-6-6--4-4-4---------|
Db|-2-2-2--6-6-6--4-4-4--4--4---|
Ab|-0-0-0--4-4-4--2-2-2--4--4---|
Eb|----------------------2--2---|

Chorus
Eb|-----------------------------------------|
Bb|-----------------------------------------|
Gb|---------------------6-6-6-6-6-9-9-9-9-9-|
Db|-7-7-7-7-7-7-7-7-7-7-6-6-6-6-6-9-9-9-9-9-|
Ab|-7-7-7-7-7-7-7-7-7-7-4-4-4-0h4-7-7-7-0h7-|
Eb|-5-5-5-0h5-5-5-5-0h5---------------------|

Post-Chorus
Eb|--------------------------------|
Bb|--------------------------------|
Gb|-------------6~~-------------6~~|
Db|-7-7-7-7-7-7-6~~-7-7-7-7-7-7-6~~|
Ab|-7-7-7-7-7-7-4~~-7-7-7-7-7-7-4~~|
Eb|-5-5-5-5-5-5-----5-5-5-5-5-5----|

Add this to the Post Chorus After the 2nd Chorus
Eb|-------------------------|
Bb|-------------------------|
Gb|-9-----------------------|
Db|-9-----------------------|
Ab|-7b9---------------------|
Eb|-------------------------|
      ^Hold that note

Solo (1st measure 2x; 2nd measure 1x; 3rd measure once)
Eb|-----------14-17-14-@-19-17-19-@-14~~~~~~|
Bb|-10---10-@-------------------------------|
Gb|----9------------------------------------|
Db|-----------------------------------------|
Ab|-----------------------------------------|
Eb|-----------------------------------------|

Eb|-----------14-17-14-@-19-17-19-@-19b20----|
Bb|-10---10-@--------------------------------|
Gb|----9-------------------------------------|
Db|------------------------------------------|
Ab|------------------------------------------|
Eb|------------------------------------------|
                                       ^Hold that note

Eb|-17--14--12----------------------|-------------------------|
Bb|-------------14--12--14--12--10~~|~~~~~~~~~~~~~~~~~~~~~~~~~|
Gb|---------------------------------|-------------------------|
Db|---------------------------------|-------------------------|
Ab|---------------------------------|-------------------------|
Eb|---------------------------------|-------------------------|
            
Hard to play? Try these video lessons and learn fast. | Correct




comments powered by Disqus
↑ Back to top | Tablatures and chords are parodies/interpretations of the original songs. You may use it for private study, scholarship, research or language learning purposes only