» » »

Chemical 0 - Inequality Bass tabs (ver.1)

Artists:  A B C D E F G H I J K L M N O P Q R S T U V W X Y Z # 

Chemical 0 - Inequality Bass tabs (ver.1)

Unsigned
Rating:
0/5 (0 votes)

Hard to play? Try these video lessons and learn fast.
                


NORMAL VERSE

G|--0--X--2--X---4-4--3----------------------------------|
D|--0--X--2--X-----------4-4--5-4-5----------------------|
A|--0--X--2--X-------------------------------------------|
E|--0--X--2--X------------------------0h5h7-0h5h7-0h5h7--|


CHORUS

G|-1-1-1-1--------------------------------444---444------|
D|---------2-2-2-2---------------------444---444----4h1--|
A|-----------------3-3-3-3-------------------------------|
E|--------------------------4--4--4h1--------------------|


VERSE 2

G|-------------------------------|
D|-------------------------------|
A|-0-0-0-0---5-------------------|
E|-0-0-0-0-5---5h2-2-3-2-3--2h1--|

ENDING

G|---------------0-0-X--| repeat
D|--------0-0-X--0-0-X--| and
A|-0-0-X--0-0-X---------| fade
E|-0-0-X----------------| out!!!
            
Hard to play? Try these video lessons and learn fast. | Correct




comments powered by Disqus
↑ Back to top | Tablatures and chords are parodies/interpretations of the original songs. You may use it for private study, scholarship, research or language learning purposes only