» » »

Unsigned, Chain - Tired Bass tabs (ver.1)

Artists:  A B C D E F G H I J K L M N O P Q R S T U V W X Y Z # 

Chain - Tired Bass tabs (ver.1)

Unsigned Tabs
 Rating:
4/5 (4 votes)
Chain - Tired lessons Tabs too difficult? Try these video lessons and learn fast
                Regular 6-string




INTRO
---------------------------------------------
---------------------------------------------
---------------------------------------------
---------------------------------------------
------0--------------------------------------
-0--------1-3-2-3-4-3-2---4-3-2-3-----4-1-3-2

VERSE
--------------------------------------------------
--------------------------------------------------
--------------------------------------------------
--------------------------------------------------
----------------------------------------------0000
---00-1-2-2-4------1-3-2-4-1---000----1-2-3-1-----

CHORUS
--------------------------------------------------
--------------------------------------------------
--------------------------------------------------
--------------------------------------------------
-------0-1----------------------------------------
0-1--4-----3-2-3-1--0-0-3-2--00-2-3-1-1-3-4-0--5--


THIS MAY SOUND REALLY STUPID BUT IT IS FUN TO PLAY. ANYWAYS ALL YOU HAVE TO DO IF PLAY THE VERSE KINDA SLOW 2X AND THEN EVERY TIME YOU PLAY THE CHORUS ATLEAST 2X. AT THE AND OF THE VERSE THE 3RD TIME (1 IN THE BEGINNING AFTER INTRO, 1 AFTER FIRST VERSE, AND 1 AFTER 2ND VERSE) PLAY THE INTRO 3X.

THIS IS MY FIRST TAB SO I DON'T REALLY EXPECT IT TO BE REAL GREAT BUT IT IS FUN AND EASY TO PLAY. LATERZ

this was also originally on my smak 1.
            
Submit corrections

comments powered by Disqus
↑ Back to top | Unsigned Bass for Chain - Tired. Lyrics for acoustic guitar and electric guitar. Tablatures and chords are parodies/interpretations of the original songs. You may use it for private study, scholarship, research or language learning purposes only