» » »

Unsigned, Celcius Tabs (ver.1)

Artists:  A B C D E F G H I J K L M N O P Q R S T U V W X Y Z # 

Celcius Tabs (ver.1)

Unsigned Tabs
 Rating:
4/5 (4 votes)
Celcius lessons Tabs too difficult? Try these video lessons and learn fast
1
                


Drop D Tuning

E                    intro          (play 3 times)     heavey dis.
B                   
G
D
A   2-2----------5-5-5----------7-7-7----------5-5-5----------2--
D   2-2----------5-5-5----------7-7-7----------5-5-5----------2--


E                      verse 1        (play 3 times)
B
G
D   ---------2-0---------------2-0---------------2-0-----------
A   2------------------1---------------------3----------------1----
D   2------------------1---------------------3----------------1-----


E                             (play 4 times)
B
G
D
A   2-2-2-2---1-1-1-1---3-3-3-3---1-1-1-1-------------------
D   2-2-2-2---1-1-1-1---3-3-3-3---1-1-1-1-------------------


E                chorus/intro                  (play 3 times)
B
G
D
A   2-2----------5-5-5----------2-2----------7-7-7----------2-2----------5-5-5----------2-2
D   2-2----------5-5-5----------2-2----------7-7-7----------2-2----------5-5-5----------2-2


E              verse 2                  (play 4 times)
B
G
D   ---------2-0---------------2-0---------------2-0-----------
A   2------------------1------------------3----------------1--
D   2------------------1------------------3----------------1--


E                (play 4 times growing in speed each time)
B
G
D
A   -2-2-2-2---1-1-1-1---3-3-3-3---1-1-1-1-----------------
D   -2-2-2-2---1-1-1-1---3-3-3-3---1-1-1-1-----------------


E                   Prechorus/solo         (play 4 times)
B
G
D
A   -12---------------12-------------------------------------------
D   -12---12---13---12---12---13-------------------------------


E                    intro/chorus               (play 2 times)
B
G
D
A   2-2----------5-5-5----------2-2----------7-7-7----------2-2----------5-5-5----------2--
D   2-2----------5-5-5----------2-2----------7-7-7----------2-2----------5-5-5----------2--


E                      outro      (no dis.)                 (play once)
B
G
D
A   -------------------------------------------------------------------------------------------------------------
D   -2-2----------5-5-5----------2-2----------7-7-7----------2-2----------5--5--5----------2----------2--


intro
verse 1
chorus/intro
verse 2
prechorus/solo
chorus/intro
outro
            
Submit corrections

comments powered by Disqus
↑ Back to top | Unsigned Tabs for Celcius. Lyrics for acoustic guitar and electric guitar. 1 Tablatures and chords are parodies/interpretations of the original songs. You may use it for private study, scholarship, research or language learning purposes only