» » »

Caution 8e8- What U Do Tabs (ver.1)

Artists:  A B C D E F G H I J K L M N O P Q R S T U V W X Y Z # 

Caution 8e8- What U Do Tabs (ver.1)

Unsigned
Rating:
0/5 (0 votes)

Hard to play? Try these video lessons and learn fast.
                GUITAR 1 STUFF(DiPardo)
Intro
|--------------------------------------------------------------------------|
|--------------------------------------------------------------------------|
|--------------------------------------------------------------------------|
|-55-x-5555555------------------77-x-7777777-------------------------------|
|-33-x-3333333---77-x-7777777---55-x-5555555---55-x-5555-------------------|
|----------------55-x-5555555------------------33-x-3333--3-5--------------|

Verses
|--------------------------------------------------------------------------|
|--------------------------------------------------------------------------|
|--------------------------------------------------------------------------|
|-5-55555-------------7-77777----------------------------------------------|
|-3-33333---7-77777---5-55555----------------------------------------------|
|-----------5-55555-------------3-5-3--------------------------------------|
    .....     .....     .....   
Chorus
|--------------------------------------------------------------------------|
|--------------------------------------------------------------------------|
|--------------------------------------------------------------------------|
|-5555-55----------------------------7777-77-------------------------------|
|-3333-33--5555-55--2222-22--55555---5555-55--7777-77--6666-66--77777------|
|----------3333-33--4444-44--33333------------5555-55--4444-44--55555------|
p.m.   ..       ..       ..               ..       ..       ..

Interlude
|--------------------------------------------------------------------------|
|--------------------------------------------------------------------------|
|--------------------------------------------------------------------------|
|-55555-----------------------77777----------------------------------------|
|-33333-(pause)-77777-(pause)-55555-(pause)-55555-(pause)------------------|
|---------------55555-----------------------33333---------(0)--------------|
don't play bracketed 0 on 2nd time instead slide bottom to top.
Outro
|--------------------------------------------------------------------------|
|--------------------------------------------------------------------------|
|-5------------------------------------------------------------------------|
|-5------------------------------------------------------------------------|
|-3------------------------------------------------------------------------|
ORDER
Solo   (X4)
Verse  (X2)
Chorus (X1)
Solo   (x2)
Verse  (x2)
Chorus (x1)
(When bass solo plays twice, and guitar 2 plays twice, play...)
Interlude(x2)
Chorus (x2)
Verse without pm (x1)
Outro  (x1)  

GUITAR 2(Humble)
play this after guitar 1 plays two intro's and through the rest of the song except guitar two's interlude and the bass solo
|-12---11------------------------------------------------------------------|
|----0---------------------------------------------------------------------|
|--------------------------------------------------------------------------|
|--------------------------------------------------------------------------|
|--------------------------------------------------------------------------|
|--------------------------------------------------------------------------|

Interlude(play after bass plays twice)
|--------------------------------------------------------------------------|
|--------------------------------------------------------------------------|
|--------------------------------------------------------------------------|
|--------------------------------------------------------------------------|
|-33333-(pause)---------------55555-(pause)--------------------------------|
|---------------55555-(pause)--------------33333-(pause)-------------------|
pm..........................................................................
            
Hard to play? Try these video lessons and learn fast. | Correct




comments powered by Disqus
↑ Back to top | Tablatures and chords are parodies/interpretations of the original songs. You may use it for private study, scholarship, research or language learning purposes only