» » »

Cauti¤N 8e8- Impossible Tabs (ver.1)

Artists:  A B C D E F G H I J K L M N O P Q R S T U V W X Y Z # 

Cauti¤N 8e8- Impossible Tabs (ver.1)

Unsigned
Rating:
0/5 (0 votes)

Hard to play? Try these video lessons and learn fast.
                THIS IS THE FIRST TAB AND ITS NOT REALLY IT!
Cauti¤n 8e8® is a band w/ 4 ppl chris(me), Vince,humble,Mike! Heres our first song. 

Intro (guitar solo)
|-------------------------------------------------------------------------|(X2)
|-------------------------------------------------------------------------|
|-------------------------------------------------------------------------|
|-------------------------------------------------------------------------|
|-------------------------------------------------------------------------|
|-7-7-7--3-3-3---5-5-5---2-2-2---7-7-7--3-3-3--5-5-5--6-6-6---------------|

Verse 
|-------------------------------------------------------------------------|(X2)
|-------------------------------------------------------------------------|
|-------------------------------------------------------------------------|
|-9999999--7777777--8888888-----------------------------------------------|
|-9999999--7777777--8888888-----------------------------------------------|
|-9999999--7777777--8888888---9-7-8---------------------------------------|
   |pm--|   |pm--|   |pm--|
Chorus
|-------------------------------------------------------------------------|
|-------------------------------------------------------------------------|
|-------------------------------------------------------------------------|
|-555555--4-4-444444---777777--6-6-66666----------------------------------|
|-555555--4-4-444444---777777--6-6-66666----------------------------------|
|-333333--2-2-222222---555555--4-4-44444----------------------------------|

Play  Solo (X1)

Play Verse(X2)

Solo #2
|-------------------------------------------------------------------------|
|-------------------------------------------------------------------------|
|-------------------------------------------------------------------------|
|-------------------------------------------------------------------------|
|-------------------------------------------------------------------------|
|-7-7-7--3-3-3---5-5-5---2-2-2--------------------------------------------|

Play Verse (X1)

Slow Part
|-------------------------------------------------------------------------| 
|-------------------------------------------------------------------------|
|-------------------------------------------------------------------------|
|----5-4----4-5--(X4)-----------------------------------------------------|
|-5------5-------------------5-4-----4-5---(X2)---------------------------|
|--------------------------5--------5-------------------------------------|

Speeding up part (but why does everybody...)
|--0-000--3-333--2-222----------------------------------------------------|
|----------------------------0-000-----------------------------0-000------|
|-------------------------------------0-000--3-333--2-222-----------------|
|-------------------------------------------------------------------------|
|-------------------------------------------------------------------------|
|-------------------------------------------------------------------------|

Play Chorus (X2)

Verse (X3)

After Drum Solo
|-------------------------------------------------------------------------|
|-------------------------------------------------------------------------|
|-------------------------------------------------------------------------|
|-------------------------------------------------------------------------|
|-------------------------------------------------------------------------|
|-77777777--33333333--55555555--22222222----------------------------------|

After chris so Go
|-------------------------------------------------------------------------|(X4)
|-------------------------------------------------------------------------|
|-------------------------------------------------------------------------|
|-77777-8888--5555-66666--------------------------------------------------|
|-77777-8888--5555-66666--------------------------------------------------|
|-55555-6666--3333-44444--------------------------------------------------|

Play  Chorus (x2)

Ending
|-------------------------------------------------------------------------|
|-------------------------------------------------------------------------|
|-------------------------------------------------------------------------|
|-11-9-10-7---------------------------------------------------------------|
|-11-9-10-7---------------------------------------------------------------|
|-09-7-08-5---------------------------------------------------------------| ®

Thats it thanx 4 ur time...its all in the order u play.
            
Hard to play? Try these video lessons and learn fast. | Correct




comments powered by Disqus
↑ Back to top | Tablatures and chords are parodies/interpretations of the original songs. You may use it for private study, scholarship, research or language learning purposes only