» » »

Unsigned, Catjab-Twinkle Twinkle Little Star Tabs (ver.1)

Artists:  A B C D E F G H I J K L M N O P Q R S T U V W X Y Z # 

Catjab-Twinkle Twinkle Little Star Tabs (ver.1)

Unsigned Tabs
Rating:
0/5 (0 votes)
Catjab-Twinkle Twinkle Little Star lessons Tabs too difficult? Try these video lessons and learn fast
                E--------5--5--7--7--5------3--3--2--2--0--0-------]
B-2--2---------------------------------------------3---]
G-------------------------------------------------------]
D-------------------------------------------------------]
A-------------------------------------------------------]
E-------------------------------------------------------]


E-5--5--3--3--2--2--0-I-----------I
B------------------------I-----------I
G------------------------I----x2----I
D------------------------I-----------I
A------------------------I-----------I
E------------------------I-----------I

E--------5--5--7--7--5------3--3--2--2--0--0-------]
B-2--2---------------------------------------------3---]
G-------------------------------------------------------]
D-------------------------------------------------------]
A-------------------------------------------------------]
E-------------------------------------------------------]

This is the Lead guitar part, the Rhythm plays:


E---------------------------------------------------------]
B---------------------------------------------------------]
G---------------------------------------------------------]
D-------7------------------------------------------------]
A-------7------------------------------------------------]
E-------5------------------------------------------------]

At different intervals & pauses throughout the song.  (The rhythm is easy to figure out)
This Song is easy to play and I hope you will enjoy playing it.
            
Submit corrections

comments powered by Disqus
↑ Back to top | Unsigned Tabs for Catjab-Twinkle Twinkle Little Star. Lyrics for acoustic guitar and electric guitar. Tablatures and chords are parodies/interpretations of the original songs. You may use it for private study, scholarship, research or language learning purposes only