» » »

Casual- Camino Bass tabs (ver.1)

Artists:  A B C D E F G H I J K L M N O P Q R S T U V W X Y Z # 

Casual- Camino Bass tabs (ver.1)

Unsigned
Rating:
0/5 (0 votes)

Hard to play? Try these video lessons and learn fast.
                Casual
"Camino" 

Quickly, Quickly!!!

Verse

G:---------------------------------------------------
D:---------------11-10-9/7-7-7-7-7-------------------          (x2)             
A:-9-9-9-9-9----------------------------7-8-9--------
E:---------------------------------------------------

G:----------------------------------------------------------
D:---------------------------------------------------------- (x2)
A:-9-9-9-9-9-9-9-p10-h9-h10-h-9-h10-------------------------
E:----------------------------------------------------------

Interlude


G:-p7-------p7--
D:--------------     (x4)
A:--------------
E:----s5s5------

Chorus

1rst Part

G:-p7-------p7--p5---------p5--------
D:----------------------------------- (x3)
A:-----------------------------------
E:----s5s5-----------s3s3------------

2nd Part

G:-p2---------p2-----
D:-------------------   (x2)
A:-------------------
E:-----s0s0----------

1rst Part (x3)

2nd Part (x4)


Verse  (x1)

Interlude (x1)

Chorus (x1)

Guitar Solo

1st Part

G:-7--7--5--5----
D:--------------- (x3)
A:---------------
E:---5------3----

2nd Part

G:-2--2--
D:------- (x2)
A:-------
E:---0---

1st Part (x3)

2nd Part (x4)

Final Part

G:---------------------
D:---------------------
A:---------------------
E:-5xx5-3xx3-1---------


Well! That is all, Folks!
            
Hard to play? Try these video lessons and learn fast. | Correct




comments powered by Disqus
↑ Back to top | Tablatures and chords are parodies/interpretations of the original songs. You may use it for private study, scholarship, research or language learning purposes only