» » »

Casey And Cheri - Up All Night Tabs (ver.1)

Artists:  A B C D E F G H I J K L M N O P Q R S T U V W X Y Z # 

Casey And Cheri - Up All Night Tabs (ver.1)

Unsigned
Rating:
0/5 (0 votes)

Hard to play? Try these video lessons and learn fast.
                A Good Song from some good people.

INTRO/Verse
E  --------------------------------------------------------------------------------
B  --------------------------------------------------------------------------------
G  -----9---------------------------------------------------------------------------
D  -----9-------11-----------7-------9-x--x----------------------------------------
A  -----7-------11-----------7-------9-x--x-----------------------------------------
E  --------------9-----------5-------7-x--x----------------------------------------

Chorus
E  ---------------------------------------------------------------------------------
B  ---------------------------------------------------------------------------------
G  ----------------9----------------------------------------------------------------
D  ----7-----------9------------7-----------9---------------------------------------
A  ----7-----------7------------7-----------9---------------------------------------
E  ----5------------------------5-----------7---------------------------------------
            
Hard to play? Try these video lessons and learn fast. | Correct




comments powered by Disqus
↑ Back to top | Tablatures and chords are parodies/interpretations of the original songs. You may use it for private study, scholarship, research or language learning purposes only