» » »

Cardshark Devils - Bedlam Bass tabs (ver.1)

Artists:  A B C D E F G H I J K L M N O P Q R S T U V W X Y Z # 

Cardshark Devils - Bedlam Bass tabs (ver.1)

Unsigned
Rating:
0/5 (0 votes)

Hard to play? Try these video lessons and learn fast.
                Key: /=slide
Tuning:Drop D

A fun song to play by a great local band

Intro/verse
G-------------------
D-------------------
A-----------3-------
E---5-5--53---3-----


Pre-Chorus
G-------------------
D-------------------
A-------------------
E---55--55----------

Chorus
G-------------------
D-------------------
A-------------------
E-0/5--5/3---3/5----
            
Hard to play? Try these video lessons and learn fast. | Correct




comments powered by Disqus
↑ Back to top | Tablatures and chords are parodies/interpretations of the original songs. You may use it for private study, scholarship, research or language learning purposes only