» » »

Unsigned, Candid - Mellow Bass tabs (ver.1)

Artists:  A B C D E F G H I J K L M N O P Q R S T U V W X Y Z # 

Candid - Mellow Bass tabs (ver.1)

Unsigned Tabs
4/5 (4 votes)
Candid - Mellow lessons Tabs too difficult? Try these video lessons and learn fast
G |---0--2-0--4-5---0--2--0-----------------0--4-5--2-2-5-5-4-0--2--0-22-----|
D |--0--2----0----4---------2--4-0-0--2--4--------4------------4--2-----4--5-|
A |------------------2---0---------------------------------------------------|
E |--------------------------------------------------------------------------|

G |--------------------------------------------------------------------------|.
D |--0--2----0----4---------2--4-0-0--2--4--2-2---4---0h2------4--2-----4\5--|.
A |------------------2---0---------------------------------------------------|.
E |--------------------------------------------------------------------------|.

NOTE!!!!!!! REPEAT "2" 2x, THEN REPEAT "1" 2x, THEN "2" 1 MORE TIME   (1-2-2-2-1-1)
Submit corrections

comments powered by Disqus
↑ Back to top | Unsigned Bass for Candid - Mellow. Lyrics for acoustic guitar and electric guitar. Tablatures and chords are parodies/interpretations of the original songs. You may use it for private study, scholarship, research or language learning purposes only