» » »

Calling Home- A.G.A.W.S. Tabs (ver.1)

Artists:  A B C D E F G H I J K L M N O P Q R S T U V W X Y Z # 

Calling Home- A.G.A.W.S. Tabs (ver.1)

Unsigned
Rating:
0/5 (0 votes)
Tabs too difficult? Try these video lessons and learn fast.
                Calling Home
A.G.A.W.S.
Written by
Garrett Riley-George (Guitar 1, Ibanez RG 7421 XL)
Max Delgadillo (Guitar 2, BC Rich Warlock or Ibanez AX 120)

Intro gt 1 (sorry gosta have a 7 string for gt 1)

This whole song is played with heavy distortion
Guitar 1 is is tuned down a whole step
A,D,B,C,F,G,D,


-----------------------------------------------------------
-----------------------------------------------------------
-----------------------------------------------------------
-----------------------------------------------------------
-----------------------------------------------------------
----2222-----------------2222------------------------------
0000----3333-1111----0000----3333-1111---------------------
PM.....................................

Pre-chorus thingaling gt 1 (last time the rings)

------------------------------------------------------------
------------------------------------------------------------
------------------------------------------------------------
------------------------------------------------------------
-----2222-----------------X4--------------------------------
2222-4444-5555-3333-----------------------------------------
0000------3333-1111-----------------------------------------

Verse is pre chorus but palm muted.  (cheesy ass lame i know but its our first song.)

Chorus gt 1

-----4/5-----------------------------------------------------------
2----2/3--7-66-5-4---------x4--------------------------------------
0-00------5-44-3-2-------------------------------------------------
  PM

Bridge pt 1 is intro four times with no palm mute and flanger effect

Bridge 2

---------------------------3~----------------------------------------
2---------------------x4---3~----------------------------------------
0-00-2222-11111111---------1~----------------------------------------
  PM      PM.......

Order
intro
Pre-chorus part
verse
pre chorus part, (last note rings)
Drum part
Chorus
Verse but only twice
pre chorus part (last note rings)
drum part
chorus x8
bridge 1 x4
bridge 2 (last note rings)
drum part
chorus x8

Thats it for guitar 1, guitar 2 coming later and lyrics to.
            
Tabs too difficult? Try these video lessons and learn fast.


comments powered by Disqus
↑ Back to top | Tablatures and chords are parodies/interpretations of the original songs. You may use it for private study, scholarship, research or language learning purposes only