» » »

Unsigned, Byk9 - Wake Up Bass tabs (ver.1)

Artists:  A B C D E F G H I J K L M N O P Q R S T U V W X Y Z # 

Byk9 - Wake Up Bass tabs (ver.1)

Unsigned Tabs
Rating:
0/5 (0 votes)
Byk9 - Wake Up lessons Tabs too difficult? Try these video lessons and learn fast
                Intro

G-----4---4---4---4---4---4---4---4---4----4---    
D-------4---4----4---4--4----4--4---4----4----4
A---------------------------------------------------    x2
E---------------------------------------------------


Verse

G---------------------------------------------------
D 3-3-3-3-4-4-4-4-3-3-3-3-2-2-2-2-----------    
A---------------------------------------------------    x4 
E---------------------------------------------------


Bridge

G---------------------------------------------------
D-1-1-1-1-1-1-1-1-1-1-1-1-1-1-0-1-2 slide up
A---------------------------------------------------
E---------------------------------------------------

Chorus

G---------------------------------------------------
D-8-8-10-12-10-----8-8-10-12-8--------------
A---------------------------------------------------       x4
E---------------------------------------------------

Verse 

Chorus

Slow thing

G
D-8-9-8-6-4-6-8----------------3-2-0----------
A------------------12-11-10-11-----------------
E---------------------------------------------------

Intro 

Chorus

Intro

End

G----------
D-8-2-----
A------2-0
E----------
            

comments powered by Disqus
↑ Back to top | Unsigned Bass for Byk9 - Wake Up. Lyrics for acoustic guitar and electric guitar. Tablatures and chords are parodies/interpretations of the original songs. You may use it for private study, scholarship, research or language learning purposes only