» » »

B.W.W-Past Experiences Tabs (ver.1)

Artists:  A B C D E F G H I J K L M N O P Q R S T U V W X Y Z # 

B.W.W-Past Experiences Tabs (ver.1)

Unsigned
Rating:
0/5 (0 votes)

Hard to play? Try these video lessons and learn fast.
                E-----------------------------------------------0------
B---------------0----------0-------------0-------------
G---------0------------0-------------0------------0----
D----0-------------------------------------------------
A-------------------0---------------0------------------
E-----------0------------------0-----------------------

E------------------------------------------------------
B-----------------7------------------------------------
G-----------------X------------------------------------
D-------7---------5-----7-------7-7-7-7-7-7-7----------
A-------X---------------X-------X-X-X-X-5-5-5----------
E-------5---------------5-------5-5-5-5----------------

E------------------------------------------------------
B-----------------7------------------------------------
G-----------------X------------------------------------
D-------7---------5-----7-------7-7-7-7-7-7-7----------
A-------X---------------X-------X-X-X-X-5-5-5----------
E-------5---------------5-------5-5-5-5----------------

E-----------------------------------------------0------
B---------------0----------0-------------0-------------
G---------0------------0-------------0------------0----
D----0-------------------------------------------------
A-------------------0---------------0------------------
E-----------0------------------0-----------------------

E------------------------------------------------------
B------------------------------------------------------
G-7-7-7-7------------------------------------7-7-7-7-7-
D-5-5-5-5-7-7-7-7-7-7-7-------------7-7-7-7-7-5-5-5-5-5
A---------5-5-5-5-5-5-5-5-5-5-5-5-5-5-5-5-5-5----------
E---------------------3-3-3-3-3-3-3--------------------

E------------------------------------------------------
B------------------------------------------------------
G-7-7-7-7------------------------------------7-7-7-7-7-
D-5-5-5-5-7-7-7-7-7-7-7-------------7-7-7-7-7-5-5-5-5-5
            
Hard to play? Try these video lessons and learn fast. | Correct




comments powered by Disqus
↑ Back to top | Tablatures and chords are parodies/interpretations of the original songs. You may use it for private study, scholarship, research or language learning purposes only