» » »

B.W.W-Girl Tabs (ver.1)

Artists:  A B C D E F G H I J K L M N O P Q R S T U V W X Y Z # 

B.W.W-Girl Tabs (ver.1)

Unsigned
Rating:
0/5 (0 votes)

Hard to play? Try these video lessons and learn fast.
                E----------------------------------------------------
B----------------------------------------------------
G----------------------------------------------------  x7
D----------------------------------------------------
A-7-7-9-9-6-6-2-2-2-9-9-9-9-9-4-4-4-4-4-4-4-7-7-7-7-7
E-5-5-7-7-4-4-0-0-0-7-7-7-7-7-7-2-2-2-2-2-2-5-5-5-5-5

E-6-6-6-6-6-6-6-4-4-4-4-4-4-7-7-7-7-7-7-2-2-2-2-2-2-2
B-4-4-4-4-4-4-4-2-2-2-2-2-2-5-5-5-5-5-5-0-0-0-0-0-0-0
G---------------------------------------------------- x6
D----------------------------------------------------
A----------------------------------------------------
E----------------------------------------------------

E----------------------------------------------------
B----------------------------------------------------
G----------------------------------------------------  x7
D----------------------------------------------------
A-7-7-9-9-6-6-2-2-2-9-9-9-9-9-4-4-4-4-4-4-4-7-7-7-7-7
E-5-5-7-7-4-4-0-0-0-7-7-7-7-7-7-2-2-2-2-2-2-5-5-5-5-5

       PM
E----------------------------------------------------
B----------------------------------------------------
G---------------------------------------------------- x1
D------9--9----------9---9---9-----------------------
A----8-----8-------8------------7--------------------
E--7--------7----7----------------8---0-0-0-0-0-0-0-0

E----------------------------------------------------
B----------------------------------------------------
G----------------------------------------------------
D-9-9-9-9-9-9-9-9-7-7-7-7-7-7-7-7-7-7-7-7-7-7-9-9-9-9 x2
A-X-X-X-X-X-X-X-X-X-X-X-X-X-X-X-X-X-X-X-X-X-X-X-X-X-X
E-7-7-7-7-7-7-7-7-5-5-5-5-5-5-5-5-5-5-5-5-5-5-7-7-7-7

  PM
E----------------------------------------------------
B----------------------------------------------------
G---------------------------------------------------- x1
D------9--9----------9---9---9-----------------------
A----8-----8-------8------------7--------------------
E--7--------7----7----------------8---0-0-0-0-0-0-0-0
            
Hard to play? Try these video lessons and learn fast. | Correct




comments powered by Disqus
↑ Back to top | Tablatures and chords are parodies/interpretations of the original songs. You may use it for private study, scholarship, research or language learning purposes only