» » »

Branded-Waiting Tabs (ver.1)

Artists:  A B C D E F G H I J K L M N O P Q R S T U V W X Y Z # 

Branded-Waiting Tabs (ver.1)

Unsigned
Rating:
0/5 (0 votes)

Hard to play? Try these video lessons and learn fast.
                Waiting
							Desgarno


     VERSE 1:
        F#                                                                                     E
e------------------------------------------------------------------------------------------------------------------------------------------------------------   
b------2----2----2----2----3----3----3----3--------------------------------------------------------------------------------------------------------------
g--------------------------------------------------3----3----3----3----1----1----1----1------------------------------------------------------------------
D-----------------------------------------------------------------------------------------------------------------------------------------------------------
A-----------------------------------------------------------------------------------------------------------------------------------------------------------
E--------2----2----2----2----2----2----2----2----2----2----2----2----0----0----0----0---------------------------------------------------------------

   *BRIDGE:
e-----------------------------------------------------------------------------------------------------------------------------------------------------------
b------2----3---------------2----3---------------2----2----3----3--------------------------2----2----3----3-------------------------------------------
g-----------------3----1---------------3----1--------------------------3----3----1----1--------------------------3----3----1----1---------------------
D----------------------------------------------------------------------------------------------------------------------------------------------------------
A----------------------------------------------------------------------------------------------------------------------------------------------------------
E------2----3----2----0----2----2----2----0----2----2----2----2----2----2----0----0----2----2----2----2----2----2----0----0--------------------

VERSE 1:

	When the sun goes down upon this place
	I close your eyes, to see his face
	I know He's their waiting for I
	Can't turn and run, I know what to do


*BRIDGE:


VERSE 2:

                F#                          E
	Time goes on hours pass by
	All I see is the apple in Your eye
	I need Your touch, and I can't deny
	And I can't tatoo Your mind
	I'm crying out give me a sign

CHORUS:
	
                F#        C#sus
	So I'm waiting 
	D#m                         G#m        
	Waiting for Your voice
             F#        C#sus
	So I'm waiting
            D#m                          G#m
	Waiting for Your touch
             F#         C#sus
	So I'm waiting
	D#m                                 G#m
	Waiting to see Your face
	F#                 E
            Yeah... I'm waiting

VERSE 3:

	G                                                    C
	When I'am gone and I've left this place
	I will look at you face to face
	You'll be the only one that I need
	I will follow as You lead
	You will wipe the spots away
	The spot that effect my life today
	You will forgive me of all I have done
	You will be my father and me you son
            
Hard to play? Try these video lessons and learn fast. | Correct




comments powered by Disqus
↑ Back to top | Tablatures and chords are parodies/interpretations of the original songs. You may use it for private study, scholarship, research or language learning purposes only