» » »

Unsigned, Blue Tuesday - The First Song Bass tabs (ver.1)

Artists:  A B C D E F G H I J K L M N O P Q R S T U V W X Y Z # 

Blue Tuesday - The First Song Bass tabs (ver.1)

Unsigned Tabs
Rating:
0/5 (0 votes)
Hard to play? Try these video lessons and learn fast.
                Bassist : Jack Copperpot
Tuning:Standard E,A,D,G

Intro:(2x)
G|---------------------------------------------------------------------------|
D|-----------------5-5-5-5-5-5-5-5-----------------7-7-7-7-7-7-7-7-----------|
A|-7-7-7-7-7-7-7-7-----------------5-5-5-5-5-5-5-5---------------------------|
E|---------------------------------------------------------------------------|

Verse:(4x)
G|---------------------------------------------------------------------------|
D|---------------------------------------------------------------------------|
A|-5-5-5-5-5-5-5-5--7-7-7-7-7-7-7-7--2-2-2-2-2-2-2-2--9-9-9-9-9-9-9-9--------|
E|---------------------------------------------------------------------------|

Chorus:(4x)
G|---------------------------------------------------------------------------|
D|-----------------3-3-3-3-3-3-3-3-------------------------------------------|
A|-3-3-3-3-3-3-3-3-----------------------------------------------------------|
E|---------------------------------3-3-3-3-3-3-3-3--5-5-5-5-5-5-5-5----------|

Verse:(4x)
G|---------------------------------------------------------------------------|
D|---------------------------------------------------------------------------|
A|-5-5-5-5-5-5-5-5--7-7-7-7-7-7-7-7--2-2-2-2-2-2-2-2--9-9-9-9-9-9-9-9--------|
E|---------------------------------------------------------------------------|

Solo:(1x)
G|---------------------------------------------------------------------------|
D|------------------5-3------------------------------------------------------|
A|-3-3-3-3--5-5-5-5-----5-3--------------------------------------------------|
E|--------------------------5-3-1--------------------------------------------|

Chorus:(4x)
G|---------------------------------------------------------------------------|
D|-----------------3-3-3-3-3-3-3-3-------------------------------------------|
A|-3-3-3-3-3-3-3-3-----------------------------------------------------------|
E|---------------------------------3-3-3-3-3-3-3-3--5-5-5-5-5-5-5-5----------|

Outro:(2x)
G|---------------------------------------------------------------------------|
D|-----------------5-5-5-5-5-5-5-5-----------------7-7-7-7-7-7-7-7-----------|
A|-7-7-7-7-7-7-7-7-----------------5-5-5-5-5-5-5-5---------------------------|
E|---------------------------------------------------------------------------|

This is one of my first tabs I have wrote, but my first one for this site. 
My band just wrote this song. It is all played in sixteenth notes, except 
for the solo. Enjoy!
            

comments powered by Disqus
↑ Back to top | Unsigned Bass for Blue Tuesday - The First Song. Lyrics for acoustic guitar and electric guitar. Tablatures and chords are parodies/interpretations of the original songs. You may use it for private study, scholarship, research or language learning purposes only