» » »

Unsigned, Blues Tabs (ver.1)

Artists:  A B C D E F G H I J K L M N O P Q R S T U V W X Y Z # 

Blues Tabs (ver.1)

Unsigned Tabs
 Rating:
4/5 (4 votes)
Blues lessons Tabs too difficult? Try these video lessons and learn fast
                Song Title: Whatever you feel like calling it

 h - hammer on 
 p - pull off 
 b - bend string up
 r - release bend
 / - slide up
 \ - slide down
 

E----------------------------------------------------------------
B----------------------------------------------------------------
G----------------------------------------------------------------
D----------------------(x4)--------------------------------------
A---22--44--55--44-----------------------------------------------
E---00--00--00--00-----------------------------------------------

E----------------------------------------------------------------
B----------------------------------------------------------------
G----------------------(x2)--------------------------------------
D---22--44--55--44-----------------------------------------------
A---00--00--00--00-----------------------------------------------
E----------------------------------------------------------------

E----------------------------------------------------------------
B----------------------------------------------------------------
G----------------------------------------------------------------
D----------------------(x2)--------------------------------------
A---22--44--55--44-----------------------------------------------
E---00--00--00--00-----------------------------------------------

E----------------------------------------------------------------
B---4-4-4-4----2-2-2-2-------------------------------------------
G---4-4-4-4----2-2-2-2-------------------------------------------
D---4-4-4-4----2-2-2-2-------------------------------------------
A---2-2-2-2----0-0-0-0-------------------------------------------
E---0-0-0-0----0-0-0-0-------------------------------------------

E----------------------------------------------------------------
B----------------------------------------------------------------
G----------------------------------------------------------------
D----------------------------------------------------------------
A--22--44--55--44------------------------------------------------
E--00--00--00--00------------------------------------------------

E----------------------------------------------------------------
B----------------------------------------------------------------
G-----------2-2--------------------------------------------------
D-----------1-1--------------------------------------------------
A--0--1--2--2-2--------------------------------------------------
E----------------------------------------------------------------
            
Submit corrections

comments powered by Disqus
↑ Back to top | Unsigned Tabs for Blues. Lyrics for acoustic guitar and electric guitar. Tablatures and chords are parodies/interpretations of the original songs. You may use it for private study, scholarship, research or language learning purposes only