» » »

Unsigned, Bloody Knucles-Stupid Bitch Tabs (ver.1)

Artists:  A B C D E F G H I J K L M N O P Q R S T U V W X Y Z # 

Bloody Knucles-Stupid Bitch Tabs (ver.1)

Unsigned Tabs
 Rating:
4/5 (4 votes)
Bloody Knucles-Stupid Bitch lessons Tabs too difficult? Try these video lessons and learn fast
                Me and my friends are gonna work on this one some more. Enjoy peeps! We Hope
you Like our song.  Rate us good people, be brutal.

/=slide up

X=strong palm mute

x=regular palm mute

h=hammer on

Intro (Gtr 1)

--12/15------12/15------
--------12/15------12/15
------------------------
------------------------
------------------------
------------------------

Intro (Gtr 2)

--------------------------
--------------------------
---16-----16-----14----14- 
---16-----16-----14----14-
------16------16----14----
------16------16----14----


Riff(both gtrs)

-----------------------------
-----------------------------  Repeat 12 times
-----------------------------
-8-8-6-7-11(hold for a second)
-8-8-6-7-11------------------
-8-8-6-7-11------------------

Verse (Gtr 1, dont play until gtr 2 repeats their part twice)

--------------------------------
9-10--X---x-xxxx----------------
9-10--X---x-xxxx----------------
8-9--X---x-xxxx-----------------
--------------------------------repeat 5 times
--------------------------------

Verse (Gtr 2)

--------------------------------
--------------------------------repeat 7 times
--------------------------------
5-7--X---x-xxxx-----------------
5-7--X---x-xxxx-----------------
6-8--X---x-xxxx-----------------

Chorus (Gtr 1)

------------9---------------------
-6--8-1h2h3-8---------------------
-5--7-0h1h2-9---------------------
-6--7-1h2h3-----------------------
----------------------------------
----------------------------------

Chorus  (Gtr 2)

----------------------------------
----------------------------------
----------------------------------
-6--7-xxx-------------------------
-5--6-xxx-1-----------------------
-6--7-xxx-0-----------------------

Outro (Both Gtrs)

----------------------------------
----------------------------------
----------------------------------
3-2-5h4---------------------------
3-2-5h4---------------------------
3-2-5h4---------------------------

Soon I will post the lyrics for those who wish to promote us in any way.  Soon we
will have a site with videos of us playing live and our first music video.  Thanks for reading
this tab, it means alot to me and the band, all of us.
            
Submit corrections

comments powered by Disqus
↑ Back to top | Unsigned Tabs for Bloody Knucles-Stupid Bitch. Lyrics for acoustic guitar and electric guitar. Tablatures and chords are parodies/interpretations of the original songs. You may use it for private study, scholarship, research or language learning purposes only