» » »

Unsigned, Bloody Battle - Blood On Your Face Bass tabs (ver.1)

Artists:  A B C D E F G H I J K L M N O P Q R S T U V W X Y Z # 

Bloody Battle - Blood On Your Face Bass tabs (ver.1)

Unsigned Tabs
Rating:
0/5 (0 votes)
Hard to play? Try these video lessons and learn fast.
                this is a bass riff i made up so there really isnt a band called bloody battle
G|--------------------------------------|                      but i did make the
D|---------5---------------3------------| X4                   riff up.
A|-----5-7---7-5-4--4-4-4---------------|
E|-7------------------------------------|
     Chorus
G|-----------------------------------------|
D|--------3---------2---------3----------0-| X2
A|4-4-4-4---4-4-4-4---4-4-4-4---4-4-4-4----|
E|-----------------------------------------|
     Bass Solo
G|-------------------------|
D|-------------------------| 1 time
A|-------------------------|
E|-00003-00002-00003-00001-|
thats pretty much it,i hope you like this riff i made up it's fun to play so try it but dont make it into one of your own songs.
            

comments powered by Disqus
↑ Back to top | Unsigned Bass for Bloody Battle - Blood On Your Face. Lyrics for acoustic guitar and electric guitar. Tablatures and chords are parodies/interpretations of the original songs. You may use it for private study, scholarship, research or language learning purposes only