» » »

Unsigned, Bloodshed/Hate Tabs (ver.1)

Artists:  A B C D E F G H I J K L M N O P Q R S T U V W X Y Z # 

Bloodshed/Hate Tabs (ver.1)

Unsigned Tabs
 Rating:
4/5 (4 votes)
Bloodshed/Hate lessons Tabs too difficult? Try these video lessons and learn fast
                (VERSE 1)
e------------------------------------------------------------------
B------------------------------------------------------------------
G------------------------------------------------------------------   (PLAY 5 X'S)
D------------------------------------------------------------------
A------------------4-4-4-4-4-4-4-4-3-3-3-3-3-3-3-3-----------------
E--5-5-5-5-5-5-5-5---------------------------------6-6-6-6-6-6-6-6-

(CHORUS)
e-------------------------------------------------------
B-------------------------------------------------------
G-------------------------------------------------------
D-4-4-4-3-3-3-3-4-4-4-3-3-3-3-4-4-4-3-3-3-3-1-1-1-2-2-2-2        (PLAY 3 X'S)
A-4-4-4-3-3-3-3-4-4-4-3-3-3-3-4-4-4-3-3-3-3-1-1-1-2-2-2-2
E-4-4-4-3-3-3-3-4-4-4-3-3-3-3-4-4-4-3-3-3-3-1-1-1-2-2-2-2
NOTE=LET LAST SET OF 2 RING OUT

(VERSE 2)
e---------------------------------------------------------------
B---------------------------------------------------------------
G---------------------------------------------------------------
D-2-2-2-2-2-2-2-2-1-1-1-1-1-1-1-1-4-4-4-4-4-4-4-4-3-3-3-3-3-3-3-3    (PLAY 5 X'S)
A-2-2-2-2-2-2-2-2-1-1-1-1-1-1-1-1-4-4-4-4-4-4-4-4-3-3-3-3-3-3-3-3
E-2-2-2-2-2-2-2-2-1-1-1-1-1-1-1-1-4-4-4-4-4-4-4-4-3-3-3-3-3-3-3-3

(CHORUS)


PLAY THIS REALLY FAST
            
Submit corrections

comments powered by Disqus
↑ Back to top | Unsigned Tabs for Bloodshed/Hate. Lyrics for acoustic guitar and electric guitar. Tablatures and chords are parodies/interpretations of the original songs. You may use it for private study, scholarship, research or language learning purposes only