» » »

Unsigned, Bliss- I Dont Know Tabs (ver.1)

Artists:  A B C D E F G H I J K L M N O P Q R S T U V W X Y Z # 

Bliss- I Dont Know Tabs (ver.1)

Unsigned Tabs
4/5 (4 votes)
Bliss- I Dont Know lessons Tabs too difficult? Try these video lessons and learn fast

E --------------------------
B --------------------------
G 4-4-4-3-3-3-2-2-2-1-1-1-1-
D --------------------------   x5 get faster every time
A --------------------------
D --------------------------

                Guitar 1

E  -----------------------------------------------------------
B  -----------------------------------------------------------
G  -----------------------------------------------------------  x4 dist   
D  12-12-12-12-12--15-15-15-15-15--14-14-14-14--13-13-13-13-13
A  12-12-12-12-12--15-15-15-15-15--14-14-14-14--13-13-13-13-13
D  12-12-12-12-12--15-15-15-15-15--14-14-14-14--13-13-13-13-13

 		Guitar 2

E  ------------------------------------------ 
B  ------------------------------------------
G  ------------------------------------------  x4 Distortion fast
D  0-0-0-0-0--3-3-3-3-3--2-2-2-2-2--1-1-1-1-1
A  0-0-0-0-0--3-3-3-3-3--2-2-2-2-2--1-1-1-1-1
D  0-0-0-0-0--3-3-3-3-3--2-2-2-2-2--1-1-1-1-1


E 12-12-12-12-15-15-15-15-14-14-14-14-13-13-13-13--
B  ------------------------------------------------
G  ------------------------------------------------  x 2 slow
D  ------------------------------------------------
A  ------------------------------------------------
D  ------------------------------------------------
Submit corrections

comments powered by Disqus
↑ Back to top | Unsigned Tabs for Bliss- I Dont Know. Lyrics for acoustic guitar and electric guitar. Tablatures and chords are parodies/interpretations of the original songs. You may use it for private study, scholarship, research or language learning purposes only