>
 >
Blinded By Darkness - ~Blood~

Blinded By Darkness - ~Blood~ Guitar Tabs

Unsigned - Blinded By Darkness - ~Blood~ chords, tabs, tablatures, lyrics

Guitar lessons | Add/correct | Request | Top 50 tabs Artists:  A B C D E F G H I J K L M N O P Q R S T U V W X Y Z 0-9

Blinded By Darkness - ~Blood~ Guitar Tabs – Unsigned

CD, Sheet music, Poster

Do you like Blinded By Darkness - ~Blood~? Share with your friends now
Tabs

X - Dead Note
M - Mute
Normal Tuning
		~BlOoD~ 

~InTrO~
E-|------------------------------------------
A-|------------------------------------------
D-|------------------------------------------
G-|------------------------------------------
B-|------------------------------------------
E-|-0-13M--0-11M--0-9M--0-7M--0-5M--0-3M-0-1M



E-|-3-3-1-3M--------4-4-4-1-4M----------
A-|-------------------------------------
D-|-------------------------------------
G-|-------------------------------------
B-|-------------------------------------
E-|---------3-3-1-3M----------4-4-4-1-4M


~VeRsE~
E-|----------------------------------------------------
A-|----------------------------------------------------
D-|----------2---------2---------2---------2---------2-
G-|-----1---------1---------1---------1---------1------
B-|--2-2--2-2--2-2--2-2--2-2--2-2--2-2--2-2--2-2--2-2--
E-|----------------------------------------------------


E-|---------------------------------------------------
A-|---------------------------------------------------
D-|---------7---------7---------7---------7---------7-
G-|----6---------6---------6---------6---------6------
B-|-7-7--7-7--7-7--7-7--7-7--7-7--7-7--7-7--7-7--7-7--
E-|---------------------------------------------------


~PrE-CrOrUs~
E-|-99-------9----99-------9
A-|---9----9--------9----9--
D-|-------8-8-----------8-8-
G-|------8-------------8----
B-|----00------------00-----
E-|-------------------------


~ChOrUs~
E-|--------------------------------------------
A-|--------------------------------------------
D-|--------------------------------------------
G-|--------------------------------------------
B-|--------------------------------------------
E-|-XXXXXXXXX-0-0-0-6--0-0-0-1--0-0-0-6-0-0-0-1


E-|----------------------------------------------
A-|----------------------------------------------
D-|----------------------------------------------
G-|-XXXXXXXXX-0-0-0-1--0-0-0-3--0-0-0-1--0-0-0-3-
B-|----------------------------------------------
E-|----------------------------------------------

E-|-----------------------------------------------
A-|-----------------------------------------------
D-|-----------------------------------------------
G-|-----------------------------------------------
B-|-XXXXXXXXX-2-2-2-2--1-1-1-1--2-2-2-2--1-1-1-1-0
E-|-----------------------------------------------


E-|-------------------------------------------
A-|-------------------------------------------
D-|-------------------------------------------
G-|-XXXXXXXXX-1-1-3-3-2-2---------------------
B-|-XXXXXXXXX------------1-1-3-3-2-2-----------
E-|-XXXXXXXXX-----------------------1-1-3-3-2-2


~FiLl~
E-|---------------------------------5------3-/-0M
A-|--------------------------------3------1--/-0M
D-|-------------------------------1------5---/-0M
G-|-------------3-333-------7-777------------/-0M
B-|-------3-333-------7-777------------------/-0M
E-|-3-333------------------------------------/-0M


~VeRsE~
E-|------------------------------------------------
A-|------------------------------------------------
D-|----------2---------2---------2--------2------2-
G-|-----1---------1---------1---------1--------1---
B-|--2-2--2-2--2-2--2-2--2-2--2-2--2-2-2-2--2-2-2-2
E-|------------------------------------------------


E-|-------------------------------------------------
A-|-------------------------------------------------
D-|---------7---------7-------7---------7--------7--
G-|----6---------6---------6---------6---------6----
B-|-7-7--7-7--7-7--7-7--7-7--7-7--7-7--7-7--7-7--7-7
E-|-------------------------------------------------


~PrE-CrOrUs~
E-|-99--------9--99-------9
A-|---9-----9------9----9--
D-|-------8--8---------8-8-
G-|------8------------8----
B-|----00-----------00-----
E-|------------------------


~ChOrUs~
E-|---------------------------------------------
A-|---------------------------------------------
D-|---------------------------------------------
G-|---------------------------------------------
B-|---------------------------------------------
E-|-XXXXXXXXX-0-0-0-6--0-0-0-1--0-0-0-6--0-0-0-1


E-|----------------------------------------------
A-|----------------------------------------------
D-|----------------------------------------------
G-|-XXXXXXXXX-0-0-0-1--0-0-0-3--0-0-0-1--0-0-0-3-
B-|----------------------------------------------
E-|----------------------------------------------

E-|-----------------------------------------------
A-|-----------------------------------------------
D-|-----------------------------------------------
G-|-----------------------------------------------
B-|-XXXXXXXXX-2-2-2-2--1-1-1-1--2-2-2-2--1-1-1-1-0
E-|-----------------------------------------------


E-|---------------------------------------------
A-|---------------------------------------------
D-|---------------------------------------------
G-|-XXXXXXXXX-1-1-3-3-2-2-----------------------
B-|-XXXXXXXXX-------------1-1-3-3-2-2-----------
E-|-XXXXXXXXX------------------------1-1-3-3-2-2


~FiLl~
E-|---------------------------------5------3-/-0M
A-|--------------------------------3------1--/-0M
D-|-------------------------------1------5---/-0M
G-|------------333----------7-777------------/-0M
B-|------3-333---------7-777-----------------/-0M
E-|-3-333------------------------------------/-0M


~BrIdGe~
E-|-----XXXXX-------XXX-9999---XXXX
A-|-----XXXXX-------XXX-9999---XXXX
D-|-----XXXXX-------XXX-XXXX---XXXX
G-|-333-XXXXX-66666-XXX-9999---XXXX
B-|-333-XXXXX-66666-XXX-9999---XXXX
E-|-333-XXXXX-66666-XXX-9999---XXXX

~InTrO~
E-|------------------------------------------
A-|------------------------------------------
D-|------------------------------------------
G-|------------------------------------------
B-|------------------------------------------
E-|-0-13M--0-11M--0-9M--0-7M--0-5M--0-3M-0-1M



E-|-3-3-1-3M-----------------4-4-4-1-4M-----------
A-|-----------------------------------------------
D-|-----------------------------------------------
G-|-----------------------------------------------
B-|-----------------------------------------------
E-|----------3-3-1-3M-------------------4-4-4-1-4M


~BrIdGe~
E-|-----XXXXX-------XXX-9999---XXXX
A-|-----XXXXX-------XXX-9999---XXXX
D-|-----XXXXX-------XXX-XXXX---XXXX
G-|-333-XXXXX-66666-XXX-9999---XXXX
B-|-333-XXXXX-66666-XXX-9999---XXXX
E-|-333-XXXXX-66666-XXX-9999---XXXX


~ChOrUs~
E-|---------------------------------------------
A-|---------------------------------------------
D-|---------------------------------------------
G-|---------------------------------------------
B-|---------------------------------------------
E-|-XXXXXXXXX-0-0-0-6--0-0-0-1--0-0-0-6--0-0-0-1


E-|----------------------------------------------
A-|----------------------------------------------
D-|----------------------------------------------
G-|-XXXXXXXXX-0-0-0-1--0-0-0-3--0-0-0-1--0-0-0-3-
B-|----------------------------------------------
E-|----------------------------------------------

E-|-----------------------------------------------
A-|-----------------------------------------------
D-|-----------------------------------------------
G-|-----------------------------------------------
B-|-XXXXXXXXX-2-2-2-2--1-1-1-1--2-2-2-2--1-1-1-1-0
E-|-----------------------------------------------


E-|----------------------------------------------
A-|----------------------------------------------
D-|----------------------------------------------
G-|-XXXXXXXXX-1-1-3-3-2-2------------------------
B-|-XXXXXXXXX-------------1-1-3-3-2-2------------
E-|-XXXXXXXXX-------------------------1-1-3-3-2-2


E-|------------------------------------------
A-|------------------------------------------
D-|---------------------------------7-7-12-12             2X
G-|-----------------------3-3-3-7-7----------
B-|-----------7-7-7-12-12--------------------
E-|-3-3-3-7-7--------------------------------





Comments


Popular Unsigned tabs & chords
El Diablo - Untitled Bass Tabs
Funkplant - The Awakening Veriant Bass Tabs
Lifter - Gush Bass Tabs
Scope - Townies Suck Donkey Balls Bass Tabs
The Black Alliance- Masters Fault Bass Tabs
The Perves - Lazy Bass Tabs
2 Little Riffs I Made Up Tabs
Condemed Tabs
Fraser Rix- Duno The Name Yet Tabs
Last Pocket - Untitled Tabs


Song lyrics



↑ Back to top | Tablatures and chords are parodies/interpretations of the original songs. You may use it for private study, scholarship, research or language learning purposes only
© 2014 AZChords.com Contact us | Privacy policy | DMCA | Add/correct tabs | Request tabs | Top 50 tabs