» » »

Unsigned, Blender - So Mad Bass tabs (ver.1)

Artists:  A B C D E F G H I J K L M N O P Q R S T U V W X Y Z # 

Blender - So Mad Bass tabs (ver.1)

Unsigned Tabs
Rating:
0/5 (0 votes)
Blender - So Mad lessons Tabs too difficult? Try these video lessons and learn fast
                Slider:
G------------
D------------
A------------
E--3s6s1--

Intro/Verse/Solo:
G----------------------------------------
D-----------0-0-2-0-2-2-0------------
A--------2----------------2-3-3-2-0--
E----3-3--3----------------------------

Chorus:
G---------------------------------------------------------------------------------
D---------------------------------------------------------------------------------
A-------------------3-3-3-3-3-3-3-3-------------------3-3-3-3-5-5-5-5--
E--3-3-3-3-0-0-0-0-------------------3-3-3-3-0-0-0-0-------------------

Order:
Slider
I/V/S x6
Chorus x2
I/V/S x6
Chorus x2
I/V/S x4
Chorus x2
I/V/S x2
You can mess with this because I wrote the bass line.
            

comments powered by Disqus
↑ Back to top | Unsigned Bass for Blender - So Mad. Lyrics for acoustic guitar and electric guitar. Tablatures and chords are parodies/interpretations of the original songs. You may use it for private study, scholarship, research or language learning purposes only