» » »

Unsigned, Blacksummer-Drag Me Down Bass tabs (ver.1)

Artists:  A B C D E F G H I J K L M N O P Q R S T U V W X Y Z # 

Blacksummer-Drag Me Down Bass tabs (ver.1)

Unsigned Tabs
 Rating:
4/5 (4 votes)
Blacksummer-Drag Me Down lessons Tabs too difficult? Try these video lessons and learn fast
1
                ((verse1))
G:-----------------------------------------------------------------------------------
D:-----------------------------------------------------------------------------------
A:-----------------------------------------9999999--7777777--5555555--2222222--------
E:--99999999--77777777--55555555--22222222-------------------------------------------

((pre chorus))
G:-----------------------------------------------------------------------------------
D:-----------------------------------------------------------------------------------
A:-----------5555555555--------------------------------------------------------------
E:--555555555------------------------------------------------------------------------

((chorus))
G:-----------------------------------------------------------------------------------
D:-------555------333------111-------------------------------------------------------
A:--0-5-0----0-3-0----0-1-0----------555------333------111---------------------------
E:------------------------------0-5-0----0-3-0----0-1-0------------------------------

((Verse 2))
G:-----------------------------------------------------------------------------------
D:-----------------------------------------------------------------------------------
A:-----------------------------------------9999999--7777777--5555555--2222222--------
E:--99999999--77777777--55555555--22222222-------------------------------------------

((pre chorus))
G:-----------------------------------------------------------------------------------
D:-----------------------------------------------------------------------------------
A:-------------5555555555------------------------------------------------------------
E:---5555555555----------------------------------------------------------------------

((chorus))
G:-----------------------------------------------------------------------------------
D:-------555-----333------111--------------------------------------------------------
A:--0-5-0---0-3-0----0-1-0----------555------333------111----------------------------
E:-----------------------------0-5-0----0-3-0----0-1-0-------------------------------

G:-----------------------------------------------------------------------------------
D:-----------------------------------------------------------------------------------
A:----------------------------------------555------333------111----------------------
E:--9999999-7777777-5555555-2222222--0-5-0----0-3-0----0-1-0-------------------------
            
Submit corrections

comments powered by Disqus
↑ Back to top | Unsigned Bass for Blacksummer-Drag Me Down. Lyrics for acoustic guitar and electric guitar. 1 Tablatures and chords are parodies/interpretations of the original songs. You may use it for private study, scholarship, research or language learning purposes only