» » »

Blackmail - Please Report Bass tabs (ver.1)

Artists:  A B C D E F G H I J K L M N O P Q R S T U V W X Y Z # 

Blackmail - Please Report Bass tabs (ver.1)

Unsigned
Rating:
0/5 (0 votes)

Hard to play? Try these video lessons and learn fast.
                Band - Blackmail
Song - Please Report 

Chorus
G------------------------------------
D--10-10-10-10-10-10-----------------
A---------------------10-10--9-9--8--
E------------------------------------

Verse
G-----------------------
D-----------------------
A--4444-6666-5555-9999--
E-----------------------

Interlude
G--------------------
D--------------------
A------------0r------
E--0r---0r-------0r--

Verse      X12
Chorus     X4
Verse      X8
Chorus     X4
Verse      X8
Chorus     X4
Interlude  X4
Verse      X2
Chorus     X4
            
Hard to play? Try these video lessons and learn fast. | Correct




comments powered by Disqus
↑ Back to top | Tablatures and chords are parodies/interpretations of the original songs. You may use it for private study, scholarship, research or language learning purposes only