» » »

Black Cast - No More Tabs (ver.1)

Artists:  A B C D E F G H I J K L M N O P Q R S T U V W X Y Z # 

Black Cast - No More Tabs (ver.1)

Unsigned
Rating:
0/5 (0 votes)

Hard to play? Try these video lessons and learn fast.
                Intro/Verses/Interlude
    * * * * * * * * * * * * * * * *  * * * * * * * * * * * * * * *   * * * * * * *
    C                           C   F#                           F# G#           G#
E-|---------------------------------------------------------------------------------
B-|---------------------------------------------------------------------------------
G-|-5-x-x-5-x-x-5-x-5-x-x-5-x-x-5-x-------------------------------------------------
D-|-5-x-x-5-x-x-5-x-5-x-x-5-x-x-5-x--4-x-x-4-x-x-4-x-4-x-x-4-x-x-4-/-6-x-x-6-x-x-6-/
A-|-3-x-x-3-x-x-3-x-3-x-x-3-x-x-3-x--4-x-x-4-x-x-4-x-4-x-x-4-x-x-4-/-6-x-x-6-x-x-6-/
E-|----------------------------------2-x-x-2-x-x-2-x-2-x-x-2-x-x-2-/-4-x-x-4-x-x-4-/                      
    * * * * * * *   * * * * * * * * * * * * * * * *
    E           E  F#                           F# 
E-|-------------------------------------------------| |
B-|-------------------------------------------------|.|  Intro     - x2
G-|-------------------------------------------------| |  Verses    - x2
D-|-2-x-x-2-x-x-2-/-4-x-x-4-x-x-4-x-4-x-x-4-x-x-4-x-| |  Interlude - x2
A-|-2-x-x-2-x-x-2-/-4-x-x-4-x-x-4-x-4-x-x-4-x-x-4-x-|.|
E-|-0-x-x-0-x-x-0-/-2-x-x-2-x-x-2-x-2-x-x-2-x-x-2-x-| |

Pre-chorus 
    * * * * * * * *  * * * * * * *    * * * * * * *    * * * * * * * *  
    E           E   F#           F#  G#           G#   A           A    
E-|---------------------------------------------------------------------
B-|---------------------------------------------------------------------
G-|---------------------------------------------------------------------
D-|-2-x-x-2-x-x-2-x--4-x-x-4-x-x-4-x--6-x-x-6-x-x-6-x--7-x-x-7-x-x-7-x--  
A-|-2-x-x-2-x-x-2-x--4-x-x-4-x-x-4-x--6-x-x-6-x-x-6-x--7-x-x-7-x-x-7-x--
E-|-0-x-x-0-x-x-0-x--2-x-x-2-x-x-2-x--4-x-x-4-x-x-4-x--5-x-x-5-x-x-5-x--

    * ^ * ^ * ^ * ^ * ^ * ^ * ^ * ^
    B                           B
E-|-7-x-x-7-x-x-7-x-7-x-x-7-x-x-7-x-| |
B-|-7-x-x-7-x-x-7-x-7-x-x-7-x-x-7-x-|.|
G-|-7-x-x-7-x-x-7-x-7-x-x-7-x-x-7-x-| |
D-|-9-x-x-9-x-x-9-x-9-x-x-9-x-x-9-x-| |
A-|-9-x-x-9-x-x-9-x-9-x-x-9-x-x-9-x-|.|
E-|-7-x-x-7-x-x-7-x-7-x-x-7-x-x-7-x-| |

Chorus
    * ^ * ^ * ^ * ^  * ^ * ^ * ^ * ^  * ^ * ^ * ^ * ^  * ^ * ^ * ^ * ^
   G#           G#   A           A   F#           F#  G#           G#
E-|-4-x-x-4-x-x-4-x--5-x-x-5-x-x-5-x--2-x-x-2-x-x-2-x--4-x-x-4-x-x-4-x--
B-|-4-x-x-4-x-x-4-x--5-x-x-5-x-x-5-x--2-x-x-2-x-x-2-x--4-x-x-4-x-x-4-x--
G-|-4-x-x-4-x-x-4-x--5-x-x-5-x-x-5-x--2-x-x-2-x-x-2-x--4-x-x-4-x-x-4-x--
D-|-6-x-x-6-x-x-6-x--7-x-x-7-x-x-7-x--4-x-x-4-x-x-4-x--6-x-x-6-x-x-6-x--
A-|-6-x-x-6-x-x-6-x--7-x-x-7-x-x-7-x--4-x-x-4-x-x-4-x--6-x-x-6-x-x-6-x--
E-|-4-x-x-4-x-x-4-x--5-x-x-5-x-x-5-x--2-x-x-2-x-x-2-x--4-x-x-4-x-x-4-x--

    * ^ * ^ * ^ * ^  * ^ * ^ * ^ * ^  * ^ * ^ * ^ * ^  * ^ * ^ * ^ * ^  
   G#           G#   A           A    B           B   G#           G#
E-|-4-x-x-4-x-x-4-x--5-x-x-5-x-x-5-x--7-x-x-7-x-x-7-x--4-x-x-4-x-x-4-x--| |
B-|-4-x-x-4-x-x-4-x--5-x-x-5-x-x-5-x--7-x-x-7-x-x-7-x--4-x-x-4-x-x-4-x--|.|
G-|-4-x-x-4-x-x-4-x--5-x-x-5-x-x-5-x--7-x-x-7-x-x-7-x--4-x-x-4-x-x-4-x--| |
D-|-6-x-x-6-x-x-6-x--7-x-x-7-x-x-7-x--9-x-x-9-x-x-9-x--6-x-x-6-x-x-6-x--| |
A-|-6-x-x-6-x-x-6-x--7-x-x-7-x-x-7-x--9-x-x-9-x-x-9-x--6-x-x-6-x-x-6-x--|.|
E-|-4-x-x-4-x-x-4-x--5-x-x-5-x-x-5-x--7-x-x-7-x-x-7-x--4-x-x-4-x-x-4-x--| |

Bridge
    *  *  *  *  * ^ *  *  *  *  *  * ^ *  *  *  *  *  * ^ *  *  *  *  *  *
   G#        G# A   A  G#       G# F# F# G#        G# A   A G#        G# B
E-|-4--4--4--4--5-5-5--4--4--4--4--2-2-2--4--4--4--4--5-5-5--4--4--4--4--7---| |
B-|-4--4--4--4--5-5-5--4--4--4--4--2-2-2--4--4--4--4--5-5-5--4--4--4--4--7---|.|
G-|-4--4--4--4--5-5-5--4--4--4--4--2-2-2--4--4--4--4--5-5-5--4--4--4--4--7---| |
D-|-6--6--6--6--7-7-7--6--6--6--6--4-4-4--6--6--6--6--7-7-7--6--6--6--6--9---| |
A-|-6--6--6--6--7-7-7--6--6--6--6--4-4-4--6--6--6--6--7-7-7--6--6--6--6--9---|.|
E-|-4--4--4--4--5-5-5--4--4--4--4--2-2-2--4--4--4--4--5-5-5--4--4--4--4--7---| |

Outro
    *  *  *  *  *    *  *  *  *  *    *  *  *  *  *    *  *  *  *  *    *    * ^
   G#        G# B   G#        G# B   G#        G# B   G#        G# B   G#      G#  
E-|-4--4--4--4--7----4--4--4--4--7----4--4--4--4--7----4--4--4--4--7----4----4-4-|
B-|-4--4--4--4--7----4--4--4--4--7----4--4--4--4--7----4--4--4--4--7----4----4-4-|
G-|-4--4--4--4--7----4--4--4--4--7----4--4--4--4--7----4--4--4--4--7----4----4-4-|
D-|-6--6--6--6--9----6--6--6--6--9----6--6--6--6--9----6--6--6--6--9----6----6-6-|
A-|-6--6--6--6--9----6--6--6--6--9----6--6--6--6--9----6--6--6--6--9----6----6-6-|
E-|-4--4--4--4--7----4--4--4--4--7----4--4--4--4--7----4--4--4--4--7----4----4-4-|

Strumming Pattern:  * = Down  ^ =  Up

Sliding:            / = Slide
            
Hard to play? Try these video lessons and learn fast. | Correct




comments powered by Disqus
↑ Back to top | Tablatures and chords are parodies/interpretations of the original songs. You may use it for private study, scholarship, research or language learning purposes only