» » »

Unsigned, Bill's Bodatius Beach Bash - Canned Ham Tabs (ver.1)

Artists:  A B C D E F G H I J K L M N O P Q R S T U V W X Y Z # 

Bill's Bodatius Beach Bash - Canned Ham Tabs (ver.1)

Unsigned Tabs
 Rating:
4/5 (4 votes)
Bill's Bodatius Beach Bash  -  Canned Ham lessons Tabs too difficult? Try these video lessons and learn fast
1
                intro
e---------------------------12----16--8-14-8-15-------------------
G------------------12-15----------19--9-12-9-13-9h14h9h19---------
G-----------------------17------16--------------8h13h16h12--------
D--------3333-------------19--18----------------------------------
A---3333-5555-5555----------21------------------------------------
E---5555------7777------------------------------------------------
This songs keeps going on like this but the end part is really tricky and the solo is insane
solo played 4x (really fast!!!!!)
e--12-15---------------------12--9-12-9-12-9-12-9-12-9-12--10--12-----
B--------19----------------15----12-9-12-9-12-9-12-9-12-9--16--24-----
G-----------24-----------12-------------------------------------------
D--------------12------15---------------------------------------------
A----------------18--20-----------------------------------------------
E------------------23-------------------------------------------------

ending
e--15-14-13-12-11-12-14-16---------18-12-10-9-10-11-12-13----------------
B-------------------------18-----20----------------------15--------------
G---------------------------20-22--------------------------17------------
D---------------------------10-12----------------------------19----------
A--------------------------------------------------------------21---19---
E----------------------------------------------------------------23-24---
p.m.___________________________________________________________________
            
Submit corrections

comments powered by Disqus
↑ Back to top | Unsigned Tabs for Bill's Bodatius Beach Bash - Canned Ham. Lyrics for acoustic guitar and electric guitar. 1 Tablatures and chords are parodies/interpretations of the original songs. You may use it for private study, scholarship, research or language learning purposes only