» » »

Unsigned, Bgm-Gourilla Tabs (ver.1)

Artists:  A B C D E F G H I J K L M N O P Q R S T U V W X Y Z # 

Bgm-Gourilla Tabs (ver.1)

Unsigned Tabs
Rating:
0/5 (0 votes)
Bgm-Gourilla lessons Tabs too difficult? Try these video lessons and learn fast
                (intro)
|-------------|-------------|------------|-----------------------|
|-------------|-------------|------------|-----------------------|
|-------------|-------------|------------|-----------------------|
|---2----2---2|---4----4---4|--2----2---2|-----------------------|     x 5
|---2----2---2|---4----4---4|--2----2---2|-----------------------|
|---0--3---3--|---0--5---5--|--0--3---3--|---5-6-5-7-5-8-5-------|
 (verse)
|-------------|-------------|-------------|------------------|
|-------------|-------------|-------------|------------------|
|-------------|-------------|-------------|------------------|
|-----------10|-----------10|-----------10|-----------10-10--|         x 3
|--10----10-10|--10----10-10|--10----10-10|--10----10-10-10--|
|--10-11-10---|--10-11-10---|--10-11-10---|--10-11-10--------|
       (Chorus)
|-------------|------------|
|-------------|------------|
|-------------|------------|
|---2----2\--3|---2----2/-1|       x 7
|---2----2\--3|---2----2/-1|
|---0--3------|---0--3-----|
 (verse)
|-------------|-------------|-------------|------------------|
|-------------|-------------|-------------|------------------|
|-------------|-------------|-------------|------------------|
|-----------10|-----------10|-----------10|-----------10-10--|         x 3
|--10----10-10|--10----10-10|--10----10-10|--10----10-10-10--|
|--10-11-10---|--10-11-10---|--10-11-10---|--10-11-10--------|
(intro)
|-------------|-------------|------------|-----------------------|
|-------------|-------------|------------|-----------------------|
|-------------|-------------|------------|-----------------------|
|---2----2---2|---4----4---4|--2----2---2|-----------------------|     x 5
|---2----2---2|---4----4---4|--2----2---2|-----------------------|
|---0--3---3--|---0--5---5--|--0--3---3--|---5-6-5-7-5-8-5-------|
(Solo)
|------------------------------------------------------------------|
|------------------------------------------------------------------|
|------------------------------------------------------------------|
|---------------------------------------------5-6-5-7-5-8-5-7-5-6-5|
|-----------------------5-6-5-7-5-8-5-7-5-6-5----------------------| 
|-5-6-5-7-5-8-5-7-5-6-5--------------------------------------------|
          ...just keep moving up the strings and just mess around with it...
(Chorus)
|-------------|------------|
|-------------|------------|
|-------------|------------|
|---2----2\--3|---2----2/-1|       x 7
|---2----2\--3|---2----2/-1|
|---0--3------|---0--3-----|
       (verse)
|-------------|-------------|-------------|------------------|
|-------------|-------------|-------------|------------------|
|-------------|-------------|-------------|------------------|
|-----------10|-----------10|-----------10|-----------10-10--|         x 3
|--10----10-10|--10----10-10|--10----10-10|--10----10-10-10--|
|--10-11-10---|--10-11-10---|--10-11-10---|--10-11-10--------|

(Ending)
|----------------------------------------------|
|----------------------------------------------|
|----------------------------------------------|
|-------------------------------------------10-|
|-10-10-10-10-10-10-10-10-10-10-10-10-10-10-10-|
|-10-10-10-10-10-10-10-10-10-10-10-10-10-10----|


Lead Guitar-Tommy
Rythem Guitar-Josh
BGM-Gourilla
            
Submit corrections

comments powered by Disqus
↑ Back to top | Unsigned Tabs for Bgm-Gourilla. Lyrics for acoustic guitar and electric guitar. Tablatures and chords are parodies/interpretations of the original songs. You may use it for private study, scholarship, research or language learning purposes only