>
 >
Be Like Dad - Gone

Be Like Dad - Gone Guitar Tabs

Unsigned - Be Like Dad - Gone chords, tabs, tablatures, lyrics

Guitar lessons | Add/correct | Request | Top 50 tabs Artists:  A B C D E F G H I J K L M N O P Q R S T U V W X Y Z 0-9

Be Like Dad - Gone Guitar Tabs – Unsigned

CD, Sheet music, Poster

Do you like Be Like Dad - Gone? Share with your friends now
Tabs
Guitarists: Jon Ackland & Ant Ruston


INTRO
Guitar 1:

E------------------------------------------------------------------------------------
B------------------------------------------------------------------------------------
G-------13-------13-------13-------13-------13s9-----9-----11-----9-----7-----7h9s13-   X 8
D-11-11----11-11----11-11----11-11----11-11------7-7---7-7----7-7---7-7---7-7--------
A------------------------------------------------------------------------------------
E------------------------------------------------------------------------------------

After 4 Times Guitar 2 Plays:

E------------------------------------------------------------------------------------
B------------------------------------------------------------------------------------
G------------------------------------------------------------------------------------   X 2
D-11-11------------------------------------------7-7---------------------------------
A-11-11------------------------------------------7-7---------------------------------
E-9--9-------------------------------------------5-5---------------------------------

(In Time With Guitar 1)
E-------------------------------------------------------------------------------
B-------------------------------------------------------------------------------
G-------------------------------------------------------------------------------   X 2
D-11-11-11-11-11-11-11-11-11-11-11-11-11-11-9-9-7-7-7-7-7-7-7-7-7-7-7-7-7-7-7-9-
A-11-11-11-11-11-11-11-11-11-11-11-11-11-11-9-9-7-7-7-7-7-7-7-7-7-7-7-7-7-7-7-9-
E-9--9--9--9--9--9--9--9--9--9--9--9--9--9--7-7-5-5-5-5-5-5-5-5-5-5-5-5-5-5-5-7-

PRE-VERSE
Both Guitars

E-------------------------------------------------------------------------------
B-------------------------------------------------------------------------------
G-------------------------------------------------------------------------------   X 2
D-11-11-11-11-11-11-11-11-11-11-11-11-11-11-9-9-7-7-7-7-7-7-7-7-7-7-7-7-7-7-7-9-
A-11-11-11-11-11-11-11-11-11-11-11-11-11-11-9-9-7-7-7-7-7-7-7-7-7-7-7-7-7-7-7-9-
E-9--9--9--9--9--9--9--9--9--9--9--9--9--9--7-7-5-5-5-5-5-5-5-5-5-5-5-5-5-5-5-7-

VERSE
Both Guitars

E------------------------------------------------------------------------------------
B------------------------------------------------------------------------------------
G------------------------------------------------------------------------------------
D-11-11-x-x-x-x-x-x-x-x-x-x-x-x-x-x-9-7-7-x-x-x-x-x-x-x-x-x-x-x-x-x-x-9-7-7-x-x-x-x-x
A-11-11-x-x-x-x-x-x-x-x-x-x-x-x-x-x-9-7-7-x-x-x-x-x-x-x-x-x-x-x-x-x-x-9-7-7-x-x-x-x-x
E-9--9--x-x-x-x-x-x-x-x-x-x-x-x-x-x-7-5-5-x-x-x-x-x-x-x-x-x-x-x-x-x-x-7-5-5-x-x-x-x-x

E--------------------------------------------------------
B--------------------------------------------------------
G--------------------------------------------------------
D-x-x-x-x-x-x-x-x-x-x-9-11-11-x-x-x-x-x-x-x-x-x-x-x-x-x-x
A-x-x-x-x-x-x-x-x-x-x-9-11-11-x-x-x-x-x-x-x-x-x-x-x-x-x-x
E-x-x-x-x-x-x-x-x-x-x-7-9--9--x-x-x-x-x-x-x-x-x-x-x-x-x-x

E------------------------------------------------------------------------------------
B------------------------------------------------------------------------------------
G------------------------------------------------------------------------------------
D-11-11-x-x-x-x-x-x-x-x-x-x-x-x-x-x-9-7-7-x-x-x-x-x-x-x-x-x-x-x-x-x-x-9-7-7-x-x-x-x-x
A-11-11-x-x-x-x-x-x-x-x-x-x-x-x-x-x-9-7-7-x-x-x-x-x-x-x-x-x-x-x-x-x-x-9-7-7-x-x-x-x-x
E-9--9--x-x-x-x-x-x-x-x-x-x-x-x-x-x-7-5-5-x-x-x-x-x-x-x-x-x-x-x-x-x-x-7-5-5-x-x-x-x-x

E-----------------------------------------------------------------------
B-----------------------------------------------------------------------
G-----------------------------------------------------------------------
D-x-x-x-x-x-x-x-x-x-x-9-11-11-11-11-11-11-11-11-11-11-11-11-11-11-11-11-
A-x-x-x-x-x-x-x-x-x-x-9-11-11-11-11-11-11-11-11-11-11-11-11-11-11-11-11-
E-x-x-x-x-x-x-x-x-x-x-7-9--9--9--9--9--9--9--9--9--9--9--9--9--9--9--9--

CHORUS
Both Guitars

E----------------------------------------------------
B----------------------------------------------------
G-9-9-9-9-9-9-9-9-9-13-14-14-14-14-14-13-13-13-13-13-   X 3
D-9-9-9-9-9-9-9-9-9-13-14-14-14-14-14-13-13-13-13-13-
A-7-7-7-7-7-7-7-7-7-11-12-12-12-12-12-11-11-11-11-11-
E----------------------------------------------------

E---------------------------------------------------------
B---------------------------------------------------------
G-9-9-9-9-9-9-9-9-9-13-14-14-14-14-14---------------------
D-9-9-9-9-9-9-9-9-9-13-14-14-14-14-14-9-9-9-9-9-9-9-9-9-9-
A-7-7-7-7-7-7-7-7-7-11-12-12-12-12-12-9-9-9-9-9-9-9-9-9-9-
E-------------------------------------7-7-7-7-7-7-7-7-7-7-

VERSE
Both Guitars

E------------------------------------------------------------------------------------
B------------------------------------------------------------------------------------
G------------------------------------------------------------------------------------
D-11-11-x-x-x-x-x-x-x-x-x-x-x-x-x-x-9-7-7-x-x-x-x-x-x-x-x-x-x-x-x-x-x-9-7-7-x-x-x-x-x
A-11-11-x-x-x-x-x-x-x-x-x-x-x-x-x-x-9-7-7-x-x-x-x-x-x-x-x-x-x-x-x-x-x-9-7-7-x-x-x-x-x
E-9--9--x-x-x-x-x-x-x-x-x-x-x-x-x-x-7-5-5-x-x-x-x-x-x-x-x-x-x-x-x-x-x-7-5-5-x-x-x-x-x

E--------------------------------------------------------
B--------------------------------------------------------
G--------------------------------------------------------
D-x-x-x-x-x-x-x-x-x-x-9-11-11-x-x-x-x-x-x-x-x-x-x-x-x-x-x
A-x-x-x-x-x-x-x-x-x-x-9-11-11-x-x-x-x-x-x-x-x-x-x-x-x-x-x
E-x-x-x-x-x-x-x-x-x-x-7-9--9--x-x-x-x-x-x-x-x-x-x-x-x-x-x

E------------------------------------------------------------------------------------
B------------------------------------------------------------------------------------
G------------------------------------------------------------------------------------
D-11-11-x-x-x-x-x-x-x-x-x-x-x-x-x-x-9-7-7-x-x-x-x-x-x-x-x-x-x-x-x-x-x-9-7-7-x-x-x-x-x
A-11-11-x-x-x-x-x-x-x-x-x-x-x-x-x-x-9-7-7-x-x-x-x-x-x-x-x-x-x-x-x-x-x-9-7-7-x-x-x-x-x
E-9--9--x-x-x-x-x-x-x-x-x-x-x-x-x-x-7-5-5-x-x-x-x-x-x-x-x-x-x-x-x-x-x-7-5-5-x-x-x-x-x

E-----------------------------------------------------------------------
B-----------------------------------------------------------------------
G-----------------------------------------------------------------------
D-x-x-x-x-x-x-x-x-x-x-9-11-11-11-11-11-11-11-11-11-11-11-11-11-11-11-11-
A-x-x-x-x-x-x-x-x-x-x-9-11-11-11-11-11-11-11-11-11-11-11-11-11-11-11-11-
E-x-x-x-x-x-x-x-x-x-x-7-9--9--9--9--9--9--9--9--9--9--9--9--9--9--9--9--

CHORUS
Both Guitars

E----------------------------------------------------
B----------------------------------------------------
G-9-9-9-9-9-9-9-9-9-13-14-14-14-14-14-13-13-13-13-13-   X 3
D-9-9-9-9-9-9-9-9-9-13-14-14-14-14-14-13-13-13-13-13-
A-7-7-7-7-7-7-7-7-7-11-12-12-12-12-12-11-11-11-11-11-
E----------------------------------------------------

E---------------------------------------------------------
B---------------------------------------------------------
G-9-9-9-9-9-9-9-9-9-13-14-14-14-14-14---------------------
D-9-9-9-9-9-9-9-9-9-13-14-14-14-14-14-9-9-9-9-9-9-9-9-9-9-
A-7-7-7-7-7-7-7-7-7-11-12-12-12-12-12-9-9-9-9-9-9-9-9-9-9-
E-------------------------------------7-7-7-7-7-7-7-7-7-7-

BREAK
Guitar 1

E------------------------------------------------------------------------------------
B------------------------------------------------------------------------------------
G-------13-------13-------13-------13-------13s9-----9-----11-----9-----7-----7h9s13-   X 2
D-11-11----11-11----11-11----11-11----11-11------7-7---7-7----7-7---7-7---7-7--------
A------------------------------------------------------------------------------------
E------------------------------------------------------------------------------------

CHORUS
Both Guitars

E----------------------------------------------------
B----------------------------------------------------
G-9-9-9-9-9-9-9-9-9-13-14-14-14-14-14-13-13-13-13-13-   X 6
D-9-9-9-9-9-9-9-9-9-13-14-14-14-14-14-13-13-13-13-13-
A-7-7-7-7-7-7-7-7-7-11-12-12-12-12-12-11-11-11-11-11-
E----------------------------------------------------

E---------------------------------------------------------
B---------------------------------------------------------
G-9-9-9-9-9-9-9-9-9-13-14-14-14-14-14---------------------
D-9-9-9-9-9-9-9-9-9-13-14-14-14-14-14-9-9-9-9-9-9-9-9-9-9-
A-7-7-7-7-7-7-7-7-7-11-12-12-12-12-12-9-9-9-9-9-9-9-9-9-9-
E-------------------------------------7-7-7-7-7-7-7-7-7-7-





Comments


Popular Unsigned tabs & chords
Cool Blues Riff Bass Tabs
Lifter - Gush Bass Tabs
Retribution - Blues Song Bass Tabs
Sixdaystoyesterday - Thermalvalentine Bass Tabs
Sonus - Superficial Day Bass Tabs
Staple Gun Wars-My Sister Em Bass Tabs
Stereo Ad - Alone Bass Tabs
Unfaithful- Lighted Night Bass Tabs
Useless Information - Scotch Bass Tabs
Barcode- Come Home Tabs


Song lyrics



↑ Back to top | Tablatures and chords are parodies/interpretations of the original songs. You may use it for private study, scholarship, research or language learning purposes only
© 2014 AZChords.com Contact us | Privacy policy | DMCA | Add/correct tabs | Request tabs | Top 50 tabs